Oops, an error
Loading. Please wait.

Book Of Love Tab

version 2
version 2

Whole song

4,481 views 15 this week
no commentswrite comment
1 2 3 4 5
please rate
add to favorites
launch autoscroll
font size
0
reset
how to read this tab
guitar tuner
Autoscroll
slow
fast
+/-
esc
set tempo
stop
Help us to improve Ultimate-Guitar.com Take our survey!
×
Author
Capo
1st fret
1/19/2011
~Capo on 1st Fret~

Basically you play section 1 when your NOT singing
ie: intro

Play Section 2 when you sing( repeats throughout the song) many times




SECTION 1

e----------------------------------------------------------------|
B---3---------1--------0-------------------0---------------------|
G------0---------0--------------2------0-------0-----------------|
D----------0--------0-----0--------0--------------2--------------|
A---2---------3--------------------------------------2-----------|
E-------------------------------2----------0------------0--------|

e-----------------------------------------------------------------|
B---3-----0---1---------0-----------------------------------------|
G------0---------0--------------2------0----0---------------------|
D--------------------0-----0-------0-----------0------------------|
A---2---------3------------------------------------2------0-------|
E-------------------------------2-----------3----------3----------|


SECTION 2

e-------------------------------2-----------3------------------|
B---3---------5--------5-----------------------3---------------|
G------0---------0--------0--------2--------------0------------|
D----------0--------0--------------------------------0---------|
A---2---------3--------3--------------------------------0------|
E-------------------------------2-----2-----0------------------|


e------------------------------------------------------------|
B---3---------5--------5------1----------0---------3---------|
G------0---------0--------0--------2--------0----------------|
D----------0--------0-----------------0---------0------------|
A---2---------3--------3------0-------------------------0----|
E----------------------------------------3---------3---------|




The book of love is long and boring
No one can lift the damn thing
It's full of charts and facts and figures and instructions for dancing
But I
I love it when you read to me
And you
You can read me anything

The book of love has music in it
In fact that's where music comes from
Some of it is just transcendental
Some of it is just really dumb
But I
I love it when you sing to me
And you
You can sing me anything

The book of love is long and boring
And written very long ago
It's full of flowers and heart-shaped boxes
And things we're all too young to know

But I
I love it when you give me things
And you

You ought to give me wedding rings
And I

I love it when you give me things
And you

You ought to give me wedding rings
And I

I love it when you give me things
And you

You ought to give me wedding rings

You ought to give me wedding rings.
Suggest correction
What's this?
You can suggest a correction to this tab. Community and Mods will review your correction and vote to approve or reject it.
comments
We did not receive enough feedback on this tab! Please rate:
print report bad tab
1 2 3 4 5
guest
You may want to rate the tab now too:
select rating
Please do not post tabs as comments. Select "correction" instead!