Oops, an error
Loading. Please wait.
We have an official Solsbury Hill tab made by UG professional guitarists. Check out the tab »
×
3,572 views 18 this week
1 commentread comment
1 2 3 4 5
x 3
add to favorites
×
Save as Personal and add changes to this tab that will be seen only by you. Learn more ›
×
You can save this tab as Personal to edit and correct it or add notes. All changes will be seen only by you. Learn more »
launch autoscroll
font size
0
reset
transpose
0
reset
simplify chords
display chords
guitar tuner
edit
Autoscroll
slow
fast
+/-
esc
set tempo
stop
Strumming
There is no strumming pattern for this song yet. and get +5 IQ
Arist: Peter Gabriel
Song: Solsbury Hill
Album: Peter Gabriel

Capo 4 version below.

==============
Capo 2 Version
==============

A:      x02220
E/A:    x02100
F#m:    244222
E:      022100
Dmaj7:  xx0222
E/D:    xx0100
B7sus2: x24222


Guitar 1:                                          x5
e|----------------------------------------------|-------------------0-----------------------------|
B|-------0----2h3---3----2--------3-----2----0--|--------0----2h3--------2--------3-----2----0----|
G|--1--2-----------------2----2--------------1--|*--1--2-----------------2----2--------------1---*|
D|----------------------------------------------|*-----------------------------------------------*|
A|----------------------------------------------|-------------------------------------------------|
E-----------------------------------------------|-------------------------------------------------|
Guitar 2:   
e|----------------------------------------------|-------------------------------------------------|
B|------------3-----3----2--------2-----2----0--|-------------2-----2----2--------2-----2----0----|
G|--------------2--------2----------2--------1--|*--------------2--------2----------2--------1---*|
D|----------------2------2-----2------2------2--|*----------------2------2-----2------2------2---*|
A|------------0-------0-----0-----0-------0-----|-------------0-------0-----0-----0-------0-------|
E|----------------------------------------------|-------------------------------------------------|

A  E/A  A
           Climbing up on Solsbury Hill
A  E/A  A
           I could see the city light
F#m  E  F#m
           Wind was blowing, time stood still
F#m  E  F#m
           Eagle flew out of the night

A  E/A  A
           He was something to observe
A  E/A  A
           Came in close, I heard a voice
F#m  E  F#m
           Standing stretching every nerve
F#m  E  F#m                       Dmaj7
           I had to listen had no choice

           E/D       Dmaj7              Dmaj7 
           I did not believe the information
        E/D         Dmaj7           B7sus2
           Just had to trust imagination
           E        B7sus2
           My heart going boom boom, boom


           B7sus2 E       B7sus2
           Son,    he said
           Bm7       A/C#         D       E        A     (riff)
           Grab your things, I've come to take you home.

           Eh, don't quit

A  E/A  A
           To keeping silence I resigned
A  E/A  A
           My friends would think I was a nut
F#m  E  F#m
           Turning water into wine
F#m  E  F#m
           Open doors would soon be shut

A  E/A  A
           So I went from day to day
A  E/A  A
           Though my life was in a rut
F#m  E  F#m
           'till I thought of what I'd say
F#m  E  F#m                          Dmaj7
           Which connection I should cut

        E/D      Dmaj7                    Dmaj7 
           I was feeling part of the scenery
           E/D      Dmaj7
           I walked right out of the machinery
    B7sus2 E        B7sus2
           My heart was going boom boom boom


           B7sus2 E       B7sus2
           Hey,    he said
           Bm7       A/C#         D       E        A     (riff)
           Grab your things, I've come to take you home.

           Yeah back home

A  E/A  A
           When illusion spin her net
A  E/A  A
           I'm never where I want to be
F#m  E  F#m
           And liberty she pirouette
F#m  E  F#m
           When I think that I am free


A  E/A  A
           Watched by empty silhouettes
A  E/A  A
           Who close their eyes, but still can see
F#m  E  F#m
           No one taught them etiquette
F#m  E  F#m                    Dmaj7
           I will show another me

           E/D   Dmaj7                 Dmaj7 
           Today I don't need a replacement
           E/D            Dmaj7                     B7sus2
           I'll tell them what the smile on my face meant
           E        B7sus2
           My heart going boom boom boom
           
           B7sus2 E       B7sus2
           Hey,    I said
                   Bm7     A/C#            D       E       A     (riff)
           You can keep my things, they've come to take me home




==============
Capo 4 Version
==============

G:      320003
D/G:    3x0232
Em:     022000
D:      022100
Cmaj7:  x32000
D/C:    x30232
A7sus2: x02000


Guitar 1:
         Gsus4  G Gsus4 A D/G
e|-------------------------------------------------------|
B|-------0h1-1--0----1--0-----------0h1-1--0----1--0-----|
G|---0-2-0---0--0-0--0--0--3----0-2-0---0--0-0--0--0--3--|
D|-4-----0---0--0----------4--4-----0---0--0----------4--|
A|-------------------------5--------------------------5--|
e|-------3-----------------------------------------------|
Guitar 2:                                                        x3
e|-------------------------------------------------------|
B|-------1---1--0----1---0----------1---3--0---1---0-----|
G|---0-2--0-------0---0----2----0-2--0-------0--0-----2--|
D|-4-------0-----------0------4-------0----------0-------|
A|-------------------------------------------------------|
E|-------------------------------------------------------|

G  D/G  G
           Climbing up on Solsbury Hill
G  D/G  G
           I could see the city light
Em  D  Em
           Wind was blowing, time stood still
Em  D  Em
           Eagle flew out of the night

G  D/G  G
           He was something to observe
G  D/G  G
           Came in close, I heard a voice
Em  D  Em
           Standing stretching every nerve
Em  D  Em                         Cmaj7
           I had to listen had no choice

           D/C       Cmaj7              Cmaj7 
           I did not believe the information
        D/C         Cmaj7           A7sus2
           Just had to trust imagination
           D        A7sus2
           My heart going boom boom, boom


           A7sus2 D       A7sus2
           Son,    he said
           Am7       G/B          C       D        G     (riff)
           Grab your things, I've come to take you home.

           Eh, don't quit

G  D/G  G
           To keeping silence I resigned
G  D/G  G
           My friends would think I was a nut
Em  D  Em
           Turning water into wine
Em  D  Em
           Open doors would soon be shut

G  D/G  G
           So I went from day to day
G  D/G  G
           Though my life was in a rut
Em  D  Em
           'till I thought of what I'd say
Em  D  Em                            Cmaj7
           Which connection I should cut

        D/C      Cmaj7                    Cmaj7 
           I was feeling part of the scenery
           D/C      Cmaj7
           I walked right out of the machinery
    A7sus2 D        A7sus2
           My heart was going boom boom boom


           A7sus2 D       A7sus2
           Hey,    he said
           Am7       G/B          C       D        G     (riff)
           Grab your things, I've come to take you home.

           Yeah back home

G  D/G  G
           When illusion spin her net
G  D/G  G
           I'm never where I want to be
Em  D  Em
           And liberty she pirouette
Em  D  Em
           When I think that I am free


G  D/G  G
           Watched by empty silhouettes
G  D/G  G
           Who close their eyes, but still can see
Em  D  Em
           No one taught them etiquette
Em  D  Em                      Cmaj7
           I will show another me

           D/C   Cmaj7                 Cmaj7 
           Today I don't need a replacement
           D/C            Cmaj7                     A7sus2
           I'll tell them what the smile on my face meant
           D        A7sus2
           My heart going boom boom boom
           
           A7sus2 D       A7sus2
           Hey,    I said
                   Am7     G/B             C       D       G     (riff)
           You can keep my things, they've come to take me home.

            
            
Suggest correction
Creating personal tab
Creating personal tab
You can edit any tab online and save it as your Personal.

You can edit, replace or remove any tab part or add personal notes – all changes will be seen only by you.

Personal tabs can be accessed anytime from any device, even offline.
Learn more »
Give kudos to tab author, rate the tab!
1 2 3 4 5
comments
print report bad tab
1 comment total.
0 reply
tortoise68 10 Aug 20, 2017 01:47 PM

Great job. Can u do intro in use tabs?

guest
Wanna post a correction for this tab? Suggest correction