Oops, an error
Loading. Please wait.

Start Bass Tab

25 views 3 this week
no commentswrite comment
1 2 3 4 5
3 more votes to show rating
add to favorites
launch autoscroll
font size
0
reset
guitar tuner
Autoscroll
slow
fast
+/-
esc
set tempo
stop
Help us to improve Ultimate-Guitar.com Take our survey!
×
Author
Difficulty
novice
Running Time : 1:20.


Tuning : 

G
D
A
B


Bass Start - 00:03


[Verse]

G|----------------|----------------|----------|
D|----------------|----------------|----------|
A|----------------|----------------|----------|
B|--4--9----------|--7--5----4-----|--2----0--|


G|--------------|----------------|----------------|--------------|
D|--------------|----------------|----------------|--------------|
A|--------------|----------------|----------------|-----4-----2--|
B|--11----9--4--|--9-------------|--7--5----4-----|--2-----0-----|


G|-------------|----------------|----------------|----------------|
D|-------------|----------------|----------------|----------------|
A|--1----------|----------------|----------------|----------------|
B|-------9--4--|--9-------------|--11--9---------|--11--9---------|


G|----------------|----------------|----------------|----------------|
D|----------------|----------------|----------------|----------------|
A|--1--2----1-----|----------------|----------------|----------------|
B|----------------|--9-------------|--4--9----------|--2--9----------|

                                                     [Outro]
G|----------------|----------------|----------------|----------------|
D|----------------|----------------|----------------|----------------|
A|--1--2----1-----|----------------|----------------|----------------|
B|----------------|--9-------------|----------------|--2-------------|



********************************

in regular sequence!

********************************
Suggest correction
Give kudos to tab author, rate the tab!
1 2 3 4 5
comments
print report bad tab
guest
You may want to rate the tab now too:
select rating
Wanna post a correction for this tab? Suggest correction