Oops, an error
Loading. Please wait.

Feeling Good bass

25 views 3 this week
no commentswrite comment
1 2 3 4 5
3 more votes to show rating
add to favorites
×
Save as Personal and add changes to this tab that will be seen only by you. Learn more ›
×
You can save this tab as Personal to edit and correct it or add notes. All changes will be seen only by you. Learn more »
launch autoscroll
font size
0
reset
guitar tuner
edit
Autoscroll
slow
fast
+/-
esc
set tempo
stop
Tabbed by: 6METAL6BASSIST6
E-mail: petergriffinav@gmail.com

Tuning: EADG

G|------------------------------------------------------------------------------------------------|
D|------------------------------------------------------------------------------------------------|
A|------------------------------------------------------------------------------------------------|
E|5-------------------0---5---------------5---0---1-------------------1---0---------------7---6---|

G|------------------------------------------------------------------------------------------------|
D|------------------------------------------------------------------------------------------------|
A|------------------------5---------------5---3---------------------------------------------------|
E|5-------------------5---------------------------5-----------3/5-----5---0-----------3-----------|

0:15

G|------------------------------------------------------------------------------------------------|
D|------------------------------------------------------------------------------------------------|
A|------------------------------------------------------------------------------------------------|
E|5---------------0---3---5-----------------------0-------------------0---0-------------------2---|

G|------------------------------------------------------------------------------------------------|
D|------------------------5-----------5-----------------------------------------------------------|
A|--------------------5---------------------------5-----------------------------------5-----------|
E|3-----------------------------------------------------------------------5-------5-----------0---|

0:28

G|------------------------------------------------------------------------------------------------|
D|------------------------------------------------------------------------------------------------|
A|------------------------8---------------5---6---7-----------------------------------------------|
E|1---------------------------------------------------------------5---7---0------------------3----|

G|------------------------------------------------------------------------------------------------|
D|------------------------------------------------------------------------------------------------|
A|------------------------5-----------------------------------------------------------------------|
E|5-------------------5---------------------------5-----------------------0-----------3-----------|

0:43

G|------------------------------------------------------------------------------------------------|
D|------------------------------------------------------------------------------------------------|
A|------------------------------------------------------------------------7-------7---------------|
E|5-----------------------5-------------------3---0-------------------7---------------7---\---0---|

G|------------------------------------------------------------------------------------------------|
D|------------------------------------------------------------------------------------------------|
A|------------------------------------------------5---------------------------5-------5-----------|
E|3-----------------------3-----------------------------------------------5-------5-----------0---|

0:56

G|------------------------------------------------------------------------------------------------|
D|------------------------------------------------------------------------------------------------|
A|--------------------------------------------------------------------------------5---7-----------|
E|1-----------------------1-----------------------0-----------------------7-----------------------|

G|------------------------------------------------------------------------------------------------|
D|------------------------------------------------------------------------------------------------|
A|------------------------5---------------5---3---------------------------------------------------|
E|5-------------------5---------------------------5-----------------------0-----------3-----------|

1:10

G|------------------------------------------------------------------------------------------------|
D|------------------------------------------------------------------------------------------------|
A|--------------------------------------------------------------------------------5---7-----\-----|
E|5---------------0---3---5-----------------------0-----------------------7-----------------------|

G|------------------------------------------------------------------------------------------------|
D|------------------------------------------------------------------------------------------------|
A|------------------------------------2---3---4---5-----------------------5-----------5---5---7---|
E|3-------------------3---3-------------------------------------------5---------------------------|

1:24

G|------------------------------------------------------------------------------------------------|
D|------------------------------------------------------------------------------------------------|
A|8-----------------------8-----------------------7---------------7-------------------------------|
E|------------------------------------------------------------7-------7---0---------------3---4---|

G|------------------------------------------------------------------------------------------------|
D|------------------------------------------------------------------------------------------------|
A|------------3-----------5-----------8-----\-----------------------------------------------------|
E|5-----------------------------------------------5-------0---5-------0---5-----------5---5---4---|

1:38

G|------------------------------------------------------------------------------------------------|
D|------------------------------------------------------------------------------------------------|
A|------------------------------------------------3-----------------------3-------------------5---|
E|3-----------3-----------3-------------------3-------------------0---3-----------------/-7-------|

G|------------------------------------------------------------------------------------------------|
D|------------------------------------------------------------------------------------------------|
A|7-----------5---2-------------------------------------------------------------------------------|
E|--------------------3---0---------------0---3---5-------------------0---5-----------3-----------|

1:52

G|------------------------------------------------------------------------------------------------|
D|------------------------------------------------------------------------------------------------|
A|------------------------------------------------5-------------------3---5-----------5---3-------|
E|1-------------------1---1---------------------------------------5---------------------------5---|

G|------------------------------------------------------------------------------------------------|
D|------------5-----------------------------------------------------------------------------------|
A|--------5-----------5-----------5---------------------------------------------------------------|
E|3-----------------------3-----------3---2---1---0-----------0-------0---0-----------3-----------|

2:06

G|------------------------------------------------------------------------------------------------|
D|------------------------------------------------------------------------------------------------|
A|------------------------------------------------------------------------------------------------|
E|5-------------------3---5-----------------------0-----------------------0-------------------0---|

G|------------------------------------------------------------------------------------------------|
D|------------------------------------------------------------------------------------------------|
A|------------------------------------------------5-------------------------------5---5-----\-----|
E|3-------------------3---3-----------------------------------------------3-/-5---------------0---|

2:20

G|------------------------------------------------------------------------------------------------|
D|--------------------5---3-------------------3---2-----------------------------------------------|
A|----------------3-------------------------------------------------------------------------------|
E|1-----------------------------------------------------------------------0-----------0-------3---|

G|------------------------------------------------------------------------------------------------|
D|------------------------------------------------------------------------------------------------|
A|------------------------5-----------------------------------------------------------------------|
E|5-------------------5-----------------------5---5-------------------5---0-----------3-----------|

2:34

G|------------------------------------------------------------------------------------------------|
D|------------------------------------------------------------------------------------------------|
A|------------------------------------3---5---6---7-----------------------------------------------|
E|5---------------0---3---5-----------------------------------------------0---------------0---2---|

G|------------------------------------------------------------------------------------------------|
D|------------------------------------------------------------------------------------------------|
A|------------------------------------------------5-----------------------5---------------3-------|
E|3-----------------------3-------------------3-----------------------------------------------5-\-|

2:48

G|------------------------------------------------------------------------------------------------|
D|--------------------5---3-----------------------------------------------------------------------|
A|----------------3-----------3---0-----------3-------------------5---6---7-----------7---5-------|
E|1-----------------------------------1-----------0-----------7-------------------------------8-\-|

G|------------------------------------------------------------------------------------------------|
D|------------------------------------------------------------------------------------------------|
A|------------3-----------5-----------8-----------------------------------------------------------|
E|5-------5---------------------------------------5-------0---5-------0---5-----------5---5---4---|

3:01

G|------------------------------------------------------------------------------------------------|
D|------------------------5-----------------------------------------------------------------------|
A|----------------2---5---------------------------3-----------------------3-----------3---5---6---|
E|3---------------------------------------------------------------3---3---------------------------|

G|------------------------------------------------------------------------------------------------|
D|--------------------------------------------------------------------5---7-------7---5-------5---|
A|7-----------------------7---------/-7---5---3---------------5---7-------------------------------|
E|----------------5-/-7-------0-------------------5-----------------------------------------------|

3:15

G|--------------------------------------------------------------------5---7---5-------7-----------|
D|------------------------------------------------------------5---7---------------7-------7-------|
A|8---------------8---8---8-----------8-------\---5-----------------------------------------------|
E|------------------------------------------------------------------------------------------------|

G|------------------------------------------------------------------------------------------------|
D|5-----------------------------------------------------------------------------------------------|
A|------------5-----------------------------------------------------------------------------------|
E|------------------------3-----------3---2---1---0-----------0-----------0-----------3-----------|

3:29

G|------------------------------------------------------------------------------------------------|
D|------------------------------------------------------------------------------------------------|
A|------------------------------------------------------------------------------------------------|
E|5-------------------3---5-----------------------0-----------------------0---------------0---2---|

G|------------------------------------------------------------------------------------------------|
D|------------------------------------------------------------------------------------------------|
A|------------------------------------------------5-------------------5---5-----------------------|
E|3-----------------------3-----------------------------------------------------------------------|

3:43

G|------------------------------------------------------------------------------------------------|
D|------------------------------------------------------------------------------------------------|
A|8-------------------8---8-------------------5---7-----------------------------------------------|
E|--------------------------------------------------------5---7---\---3---0---------------0---3---|

G|------------------------------------------------------------------------------------------------|
D|------------------------------------------------------------------------------------------------|
A|------------3---------/-5-----------8-------\---------------3---------/-5---5---5---8-------\---|
E|5-----------------------------------------------5-------5---------------------------------------|

G|------------------------------------------------------------------------------------------------|
D|------------------------------------------------------------------------------------------------|
A|------------3-------3---5-------5---8-----------------------------------------------------------|
E|5-------5---------------------------------------------------------------------------------------|

G|------------------------------------|
D|------------------------------------|
A|------------------------------------|
E|--------------------------------5---|

            
            
Suggest correction
Creating personal tab
Creating personal tab
You can edit any tab online and save it as your Personal.

You can edit, replace or remove any tab part or add personal notes – all changes will be seen only by you.

Personal tabs can be accessed anytime from any device, even offline.
Learn more »
Give kudos to tab author, rate the tab!
1 2 3 4 5
comments
print report bad tab
guest
You may want to rate the tab now too:
select rating
Wanna post a correction for this tab? Suggest correction