Oops, an error
Loading. Please wait.

Rock Lobster Tab

version 1
version 1

Whole song

Interactive

253,189 views 168 this week
11 commentsread comments
1 2 3 4 5
x 25
add to favorites
launch autoscroll
font size
0
reset
how to read this tab
guitar tuner
Autoscroll
slow
fast
+/-
esc
set tempo
stop
Help us to improve Ultimate-Guitar.com Take our survey!
×
Author
e|-----3-----3------------1-1-1----------|
B|-----4-----4------------0-0-0----------|
G|-----5-----5---1-0-1-0--0-0-0----------|
D|-----5-----5------------0-0-0----------|
A|--3-----8---------------2-2-2----------| x8
E|------------------------3-3-3----------|


e|---------------------------------------|
B|-8--7--8--7--4--7--4--8----------------|
G|---------------------------------------|
D|-5--4--5--4--1--4-----5----------------|
A|-------------------6-------------------| x4
E|---------------------------------------|
Suggest correction
comments
print report bad tab
11 comments total. Showing first comments.
+5 reply
olslysatan 103 Jul 09, 2008 06:19 PM

I made a mistake in the intro. this is how it should be

e|-----3-----3------------111---------------------|
B|-----4-----4------------000---------------------|
G|-----5-----5---1-0-1-0--000---------------------|
D|-----5-----5------------000---------------------|
A|--3-----6---------------222---------------------|
E|------------------------333----------repeat 8x--|

0 reply
Somethingdead 10 Aug 17, 2008 09:17 PM

THis is the best one I seen so far. Good Job.

+1 reply
TerminalKarma 96 Sep 10, 2008 04:57 PM

this is deffinitly the best one but instead of going 8th fret on the E
why not go to the 3rd on the A

guest
You may want to rate the tab now too:
select rating
Wanna post a correction for this tab? Suggest correction