Oops, an error
Loading. Please wait.

Rock Lobster Tab

version 1
version 1

Whole song

Interactive

247,099 views 186 this week
11 commentsread comments
1 2 3 4 5
accurate
x 24
add to favorites
launch autoscroll
font size
0
reset
how to read this tab
guitar tuner
Tab Pro tools
  • play this tab
  • loop segment
  • change instrument
  • show fretboard
  • metronome
×
Best way to learn
"Rock Lobster"
Autoscroll
slow
fast
+/-
esc
set tempo
stop
Contributor
I've seen alot of tabs for this song and they all sound wrong. So this is how I play it 
I think it pretty much right.

e|-----3-----3------------111---------------------|
B|-----4-----4------------000---------------------|
G|-----5-----5---1-0-1-0--000---------------------|
D|-----5-----5------------000---------------------|
A|--3-----8---------------222---------------------|
E|------------------------333----------repeat 8x--|


e|------------------------------------------------|
B|-8--7--8--7--4--7--4--8-------------------------|
G|------------------------------------------------|
D|-5--4--5--4--1--4-----5-------------------------|
A|-------------------6----------------------------|
E|-------------------------------------Repeat 4x--|

let me know what you think
comments
print report bad tab
11 comments total. Showing first comments.
+5 reply
olslysatan wrote on July 9 2008, 06:19 pm

I made a mistake in the intro. this is how it should be

e|-----3-----3------------111---------------------|
B|-----4-----4------------000---------------------|
G|-----5-----5---1-0-1-0--000---------------------|
D|-----5-----5------------000---------------------|
A|--3-----6---------------222---------------------|
E|------------------------333----------repeat 8x--|

0 reply
Somethingdead wrote on August 17 2008, 09:17 pm

THis is the best one I seen so far. Good Job.

+1 reply
TerminalKarma wrote on September 10 2008, 04:57 pm

this is deffinitly the best one but instead of going 8th fret on the E
why not go to the 3rd on the A

I want to post or [tab]
guest
You may want to rate the tab now too:
select rating
Please do not post tabs as comments. Select "correction" instead!