Oops, an error
Loading. Please wait.

Exotic Island Tab

142 views 1 this week
no commentswrite comment
1 2 3 4 5
please rate
add to favorites
launch autoscroll
font size
0
reset
how to read this tab
guitar tuner
Autoscroll
slow
fast
+/-
esc
set tempo
stop
Help us to improve Ultimate-Guitar.com Take our survey!
×
Author
Difficulty
advanced
Peter Holmgren - Exotic Island

Peter Holmgren links: www.youtube.com/peterholmgren, www.myspace.com/peterholmgren.
Listen to the song for timing. I have tabbed the intro solo. s.h. = semi harmonic, p.m. 
= palm mute. / = slide up. \ = slide down. t = right hand tap.


------------------------------------------------------------------------------|
------------------------------------------------------------------------------|
------------------------------------------------------------------------------|
----------3-------3---3--------6-8-8/10------------6-8-/10-10/11\10-8-8h10----|
----------3-------3---3---/8--------------8---/8---------------------------8--|
-1/13\1---1---1-1-1---1-------------------------------------------------------|
              p.m.

------------------------------------------------------------------------------|
------------------------------------------------------------------------------|
-----8-10-10/12--------------8-10-10/12---10-12-13p12p10-13/15v---13----------|
-/10--------------10---/10----------------------------------------------------|
------------------------------------------------------------------------------|
------------------------------------------------------------------------------|


------------------------------------------------------------------------------|
----------------------------11h13p11----------------------11h13t15p13p11------|
-12h13p12\8-8---------10h12----------12p10----------10h12----------------12---|
----------------10h13----------------------13p10------------------------------|
------------------------------------------------------------------------------|
------------------------------------------------------------------------------|
            s.h.

------------------------------------------------------------------------------|
----------11h13t15/16\15p13p11t18p13p11---------------------------------------|
-10-10h12-------------------------------12-10-10-12-13p12p10\8-8/10-----------|
--------------------------------------------------------------------10-10-10--|
------------------------------------------------------------------------------|
------------------------------------------------------------------------------|
                                                                         s.h.

------------------------------------------------------------------------------|
------------------------------------------------------------------------------|
------------------------------------------------------------------------------|
------------------------------------------------------------------------------|
-----------6-6-6/8------------------------------------------------------------|
-1-3-4p3p1---------8-8-8------------------------------------------------------|
                      s.h.
Suggest correction
Give kudos to tab author, rate the tab!
1 2 3 4 5
comments
print report bad tab
guest
You may want to rate the tab now too:
select rating
Wanna post a correction for this tab? Suggest correction