Oops, an error
Loading. Please wait.

Anthem Of Hearts Tab

154 views 1 this week
no commentswrite comment
1 2 3 4 5
please rate
add to favorites
launch autoscroll
font size
0
reset
how to read this tab
guitar tuner
Autoscroll
slow
fast
+/-
esc
set tempo
stop
Help us to improve Ultimate-Guitar.com Take our survey!
×
Anthem of Hearts
PETER KERNEL
(http://www.peterkernel.com/)


tab by  mon.nom.est.thomas.martin@gmail.com

ok, I watched live videos and it's not the way the song is played
the guitarist plays with an octaver I guess,
but you don't need it
and my version sounds pretty good


We dont care about
Having something fast
Making something last
Building up our past
We dont care
We dont care about
parties
drugs
fashion
girls
power
people
melody
We dont care
e|-----------------------------------------|
b|---------0--------0-0-0---0-0--0-0-------|
g|---0-----0--0-----0-0-0---0-0--0-0--00---|
d|---0-----0--0-----0-2-3---2-0--2-0--x0---|
a|---3--------3-----------------------x2---|
e|-----------------------------------------|


e|---------------------------|
b|---------------------------|
g|---------------------------|
d|---------------------------|
a|-----2-----5---3-----2-----|
e|---0-----0-------1-----0---|

All we want is uh uh, uh uh
all we need is uh uh, uh uh
do you want to uh uh, uh uh


e|-----------------------------------------------------------------|
b|------0---------0---------0---------0---------0---------0--------|
g|-----------9---------9---------9---------9---------9---------9---|
d|---10---10---10---10---10---10---10---10---10---10---10---10-----|
a|-----------------------------------------------------------------|
e|-----------------------------------------------------------------|

with me
We dont care about
We dont care about
Perfect
shapes
punk
funk
money
art
sports
cars
cause we don't care


e|-------------------------------------|
b|---------------5-6---5-----5---------|
g|---5---7-5---7---------7-----7---4---|
d|-------------------------------------|
a|-------------------------------------|
e|-------------------------------------|

All we need is a place to lay and dream ‘till dawn
You see, there’s a light so bright it shines
All night on me


e|----------------------------------------------------------------------|
b|----0-0-0-0-0-0-0-0-0-0-0-0-0-0-0-0-0-0-0-0-0-0-0-0-0-0-0-0-0-0-0-0---|
g|---5-5-5-5-5-5-5-5-7-7-7-7-7-7-7-7-9-9-9-9-9-9-9-9-1010101012121212---|
d|----------------------------------------------------------------------|
a|----------------------------------------------------------------------|
e|----------------------------------------------------------------------|

parties
drugs
fashion
girls
power
people
perfect
shapes


e|--------------------------------------|
b|---------00------00000000000000-------|
g|---00000000000000000000000000000000---|
d|---00000000000000023332000200000000---|
a|---333333--333333--------------2222---|
e|--------------------------------------|

All we need is a place to lay and dream till dawn
You see, there’s a light so bright it shines
All night on me

e|--------------------------------------|
b|---------00------00000000000000-------|
g|---00000000000000002220000000000000---|
d|---00000000000000023332000200000000---|
a|---333333--333333--------------2222---|
e|--------------------------------------|

(play it up and down)
e|------------------------------------|
b|------0---0---0---0---0---0---0-----|
g|----9-9-9-9-9-9-9-9-9-9-9-9-9-9-9---|
d|---10--10--10--10--10--10--10--10---|
a|-downup-----------------------------|
e|------------------------------------|

All we need is a place to lay and dream till dawn
You see, theres a light so bright it shines
All night on me
Suggest correction
Give kudos to tab author, rate the tab!
1 2 3 4 5
comments
print report bad tab
guest
You may want to rate the tab now too:
select rating
Please do not post tabs as comments. Select "correction" instead!