Oops, an error
Loading. Please wait.

Lwenzahn Theme tab

version 1
version 1

Whole song

Interactive

75,515 views 129 this week
2 commentsread comments
1 2 3 4 5
x 12
add to favorites
×
Save as Personal and add changes to this tab that will be seen only by you. Learn more ›
×
You can save this tab as Personal to edit and correct it or add notes. All changes will be seen only by you. Learn more »
launch autoscroll
font size
0
reset
how to read this tab
guitar tuner
edit
Autoscroll
slow
fast
+/-
esc
set tempo
stop
Author
Difficulty
Artist:         Löwenzahn-Theme-Author
Composition:    Löwenzahn-Theme
Transcription:  Simon Seipel (webmaster@simon-seipel.de)
Tuning:         Standard (EADGHe)


 [riff a]
e||------------------|-----------------|-----------------||     - riff a
B||------------------|-----------------|-----------------||     - riff b
G||---0--------------|-----------------|---0-------------||     - riff a
D||-----3-2-0--------|-----0-----------|-----[0]-3-2-0---||     - riff a
A||------------------|-0h2-------------|------*----------||     - riff c
E||-3----------------|-----------------|-3---------------||     
                                                                 [Löwenzahn]
* this note is only played a few times in the song              - riff a
                                                                - riff c
                                                                
 [riff b]                                                               - riff a
e||------------------|-----------------|-----------------||     - riff a
B||---1--------------|-----------------|---1-------------||     - riff c
G||-----3-2-0--------|-----0-----------|-----3-2-0-------||
D||------------------|-0h2-------------|-----------------||
A||-3----------------|-----------------|-3---------------||
E||------------------|-----------------|-----------------||


 [riff c]
e||------------------|-----------------|-----------------||
B||------------------|-----------------|-----------------||
G||------------------|-----------------|-----------------||
D||---3--------------|-----------------|-----------------||
A||-1---0------------|-(0)-------------|-----------------||
E||------------------|-----------------|-----------------||


[piano riffs]
e||------------------|-----------------|--------------------------||
B||-------12-12------|-----------------|-12-----------------------||
G||-12h14------------|-----------------|----14p12-----------------||
D||------------------|-----------------|----------12-12-----------||
A||------------------|-----------------|--------------------------||
E||------------------|-----------------|--------------------------||

e||------------------|-----------------|--------------------------||
B||-------12-12------|-12--------------|-------12-12-12-------15--||
G||-12h14------------|----14-12--------|-12h14----------14p12-----||
D||------------------|-----------------|--------------------------||
A||------------------|-----------------|--------------------------||
E||------------------|-----------------|--------------------------||

e||----12-13-13-13p12----|-----------------|-------------------17]||
B||-15----------------15-|-13-13-----------|-------12-12-12-[17---||
G||----------------------|-------12h14-15--|-14---------------*---||
D||----------------------|-----------------|----------------------||
A||----------------------|-----------------|----------------------||
E||----------------------|-----------------|----------------------||

* don't play the first time



************************************

| (n)  Ghost note
| h    Hammer-on
| p    Pull-off

************************************
Suggest correction
Creating personal tab
Creating personal tab
You can edit any tab online and save it as your Personal.

You can edit, replace or remove any tab part or add personal notes – all changes will be seen only by you.

Personal tabs can be accessed anytime from any device, even offline.
Learn more »
comments
print report bad tab
2 comments total.
-1 reply
~JetSet~ 178 Apr 25, 2007 09:14 AM

nice!

+2 reply
derChris 21 May 03, 2016 11:44 AM

danke , jetzt könne meine freunde und ich richtig abgehen

guest
You may want to rate the tab now too:
select rating
Wanna post a correction for this tab? Suggest correction