Oops, an error
Loading. Please wait.

Thieves In Time Bass Tab

13 views 1 this week
no commentswrite comment
1 2 3 4 5
1 last vote to show rating
add to favorites
launch autoscroll
font size
0
reset
guitar tuner
Autoscroll
slow
fast
+/-
esc
set tempo
stop
Help us to improve Ultimate-Guitar.com Take our survey!
×
Author
Difficulty
novice
About this tab version
My first tab ever, I don't know if it is 100% accurate, but that's how I play that music. Feel free to correct any mistake. Was this info helpful? Yes No
G|----------------------|
D|----------------------| x9
A|----------------------|
E|3--3--3--3--3--3--3--3|

G|----------------------|
D|----------------------|
A|1--1--1--1--3--3--3--3|
E|----------------------|

G|----------------------|
D|----------------------| x3
A|----------------------|
E|3--3--3--3--3--3--3--3|

G|----------------------------------------------|
D|----------------------------------------------| x2
A|1--1--1--1--1--1--1--1------------------------|
E|------------------------3--3--3--3--3--3--3--3|

Little break

G|----------------------|
D|----------------------| x6
A|3--3--3--3--3--3--3--3|
E|----------------------|

G|----------------------------------------------|
D|----------------------------------------------|
A|1--1--1--1--3--3--3--3--5--5--5--5--7--7--7--7|
E|----------------------------------------------|

G|--------------------------------------------------|
D|--------------------------------------------------|
A|--------------------------------------------------|
E|10--10--10--10--9--9--9--9--8--8--8--8--6--6--6--6|

G|-------------------------|
D|-------------------------| x2
A|-------------------------|
E|10--10-10h9--9-9h8--8-8h6|

G|-----------------------------------------|
D|-----------------------------------------|
A|-----------------------------------------|
E|-10-9-8-6-10-9-8-6-10-9-10-9-10-9-10-6-3~|

Another break

G|----------------------|
D|----------------------| x9
A|----------------------|
E|3--3--3--3--3--3--3--3|

G|----------------------|
D|----------------------|
A|1--1--1--1--3--3--3--3|
E|----------------------|

G|----------------------|
D|----------------------| x3
A|----------------------|
E|3--3--3--3--3--3--3--3|

G|----------------------------------------------|
D|----------------------------------------------| x2
A|1--1--1--1--1--1--1--1------------------------|
E|------------------------3--3--3--3--3--3--3--3|

| ~   Let the note ring a bit
| h   Hammer-on
Suggest correction
Give kudos to tab author, rate the tab!
1 2 3 4 5
comments
print report bad tab
guest
You may want to rate the tab now too:
select rating
Wanna post a correction for this tab? Suggest correction