Oops, an error
Loading. Please wait.

Cuts You Up tab

version 2
version 2

Whole song

4,949 views 12 this week
no commentswrite comment
1 2 3 4 5
x 3
add to favorites
×
Save as Personal and add changes to this tab that will be seen only by you. Learn more ›
×
You can save this tab as Personal to edit and correct it or add notes. All changes will be seen only by you. Learn more »
launch autoscroll
font size
0
reset
how to read this tab
guitar tuner
backing track
0:00
0:00
edit
Autoscroll
slow
fast
+/-
esc
set tempo
stop
Author
-------------------------------------------------------------------------------
                          Cuts You Up - Peter Murphy
-------------------------------------------------------------------------------
Tabbed by: Myself
Email: cpochie92@gmail.com

Tuning: Standard

After checking this against numerous live performance videos and playing
along to the studio version, I'm confident that this is correct. Play clean
or ideally on a twelve-string acoustic.

Violin Riff:

I've tabbed this in the range of the violin, although Mark Thwaite plays
it up an octave live on the guitar.

      Cadd9         Dsus2              E5       (E5)
e|-------------|-------------------|-------|-----------|
B|-------------|----------5--3--5--|-------|-----------|
G|-------4--7--|--(7)--4-----------|--4----|-----------|
D|----5--------|-------------------|-------|--5--7--5--|
A|-7-----------|-------------------|-------|-----------|
E|-------------|-------------------|-------|-----------|

e|-------------|-------------------|-------------|----------|
B|-------------|----------5--3--5--|--5--12------|----------|
G|-------4--7--|--(7)--4-----------|---------12--|--14--12--|
D|----5--------|-------------------|-------------|----------|
A|-7-----------|-------------------|-------------|----------|
E|-------------|-------------------|-------------|----------|

e|-------------|-------------------|-------|-----------|
B|-------------|----------5--3--5--|-------|-----------|
G|-------4--7--|--(7)--4-----------|--4----|-----------|
D|----5--------|-------------------|-------|--5--7--5--|
A|-7-----------|-------------------|-------|-----------|
E|-------------|-------------------|-------|-----------|

e|-------------|------------|--------|--------|-----|
B|-------------|------------|--5--3--|--------|-----|
G|-------4--7--|--(7)----4--|--------|--4-----|-----|
D|----5--------|------------|--------|-----7--|--5--|
A|-7-----------|------------|--------|--------|-----|
E|-------------|------------|--------|--------|-----|

Verse chords:
Just three repeating, in this order:


   Cadd9       Dsus2         E5 (Open)
e|---0---|  e|---0---|   e|---0---| 
B|---3---|  B|---3---|   B|---0---|
G|---0---|  G|---2---|   G|---4---|
D|---2---|  D|---0---|   D|---2---|
A|---3---|  A|-------|   A|---2---|
E|---0---|  E|-------|   E|---0---|


Cadd9          Dsus2         E5
I find you in the morning / After dreams of distant signs


Chorus chords:
Very simple, take the verse chords and reverse the order.

E5                 Dsus2             Cadd9
You know the way / it throws about / it takes you in and spits you out


Bridge/Outro Chords:
The bridge follows the second and last chorus. The song ends on Bbsus2.


     G        Bbsus2        Cadd9                  
e|---3---|  e|---1---|   e|---0---| 
B|---3---|  B|---1---|   B|---3---|
G|---0---|  G|---3---|   G|---0---|
D|---0---|  D|---3---|   D|---2---|
A|---2---|  A|---1---|   A|---3---|
E|---3---|  E|---1---|   E|---0---|


G           Bbsus2              Cadd9
It's okay / it goes this way / the line is thin, it twists away

************************************

| /   slide up
| \   slide down
| h   hammer-on
| p   pull-off
| ~   vibrato
| +   harmonic
| x   Mute note
| b   Bend
| pb  Pre-bend
| br  Bend release
| pbr Pre-bend release
| brb Bend release bend

************************************

            
            
Suggest correction
Creating personal tab
Creating personal tab
You can edit any tab online and save it as your Personal.

You can edit, replace or remove any tab part or add personal notes – all changes will be seen only by you.

Personal tabs can be accessed anytime from any device, even offline.
Learn more »
Give kudos to tab author, rate the tab!
1 2 3 4 5
comments
print report bad tab
guest
You may want to rate the tab now too:
select rating
Wanna post a correction for this tab? Suggest correction