Oops, an error
Loading. Please wait.

Deep Ocean Vast Sea Tab

1 view 1 this week
no commentswrite comment
1 2 3 4 5
3 more votes to show rating
add to favorites
launch autoscroll
font size
0
reset
how to read this tab
guitar tuner
Autoscroll
slow
fast
+/-
esc
set tempo
stop
Help us to improve Ultimate-Guitar.com Take our survey!
×
Author
Difficulty
novice
-------------------------------------------------------------------------------
                      Deep Ocean Vast Sea - Peter Murphy
-------------------------------------------------------------------------------
Tabbed by: Myself
Email: cpochie92@gmail.com

Tuning: Standard

The first song off of Peter Murphy's 1989 album Deep.

[Verse 1]

     
e|-----------|--------------|--------------------|
B|-----------|--------------|--------------------|
G|-----------|--------------|--------------------|
D|--------4--|--------4--2--|--------4--2--0-----|
A|--0--2-----|--0--2--------|--0--2-----------0--|
E|-----------|--------------|--------------------|

e|-----------|--------------|--------------------|
B|-----------|--------------|--------------------|
G|-----------|--------------|--------------------|
D|--------4--|--------4--2--|--------4--2--0-----|
A|--0--2-----|--0--2--------|--0--2--------------|
E|-----------|--------------|--------------------|

[Verse 2]

         B                  A
e|--------------------|-----------------|
B|-----5--4-----------|-----3--2--------|
G|--4--------4--------|--2--------2-----|
D|--4-----------4-----|--2-----------2--|
A|--2-----------------|--0--------------|
E|--------------------|-----------------|

         B                  A
e|--------------------|-----------------|
B|-----5--4-----4--5--|-----3--2--------|
G|--4--------4--------|--2--------2-----|
D|--4-----------------|--2-----------2--|
A|--2-----------------|--0--------------|
E|--------------------|-----------------|

[Chorus]

Palm mute throughout.

              B                           A
e|---------------------------|--------------------------|
B|---------------------------|--------------------------|
G|--4--4--4--4--4--4--4--4---|--2--2--2--2--2--2--2--2--|
D|--4--4--4--4--4--4--4--4---|--2--2--2--2--2--2--2--2--|
A|--2--2--2--2--2--2--2--2---|--0--0--0--0--0--0--0--0--|
E|---------------------------|--------------------------|

              B                           A                          A
e|---------------------------|--------------------------|--------------------------|
B|---------------------------|--------------------------|--------------------------|
G|--4--4--4--4--4--4--4--4---|--2--2--2--2--2--2--2--2--|--2--2--2--2--2--2--2--2--|
D|--4--4--4--4--4--4--4--4---|--2--2--2--2--2--2--2--2--|--2--2--2--2--2--2--2--2--|
A|--2--2--2--2--2--2--2--2---|--0--0--0--0--0--0--0--0--|--0--0--0--0--0--0--0--0--|
E|---------------------------|--------------------------|--------------------------|
Suggest correction
Give kudos to tab author, rate the tab!
1 2 3 4 5
comments
print report bad tab
guest
You may want to rate the tab now too:
select rating
Wanna post a correction for this tab? Suggest correction