Oops, an error
Loading. Please wait.

Always Drunk Always Loud Always Right tab

762 views 1 this week
no commentswrite comment
1 2 3 4 5
1 last vote to show rating
add to favorites
×
Save as Personal and add changes to this tab that will be seen only by you. Learn more ›
×
You can save this tab as Personal to edit and correct it or add notes. All changes will be seen only by you. Learn more »
launch autoscroll
font size
0
reset
how to read this tab
guitar tuner
edit
Autoscroll
slow
fast
+/-
esc
set tempo
stop
Author
Difficulty
7p5	= pull-off
8b9	= druk 8e fret op naar 9e/bend 8th fret to 9th
b9	= sla opgeduwde toon aan /strike bended tone
7b	= druk de snaar een klein beetje op/bend the string a little bit
~	= vibrato/vibration
~~	= veel vibrato/much vibration
\	= slide omlaag/slide down
/	= slide omhoog/slide up
x	= percussieslag/percussionstrike
0	= afdempen/mute strings
(2)	= wordt af en toe gespeeld/ is played sometimes
<7>	= kunstmatige flagolet/artificial harmonic
>7	= accent geven/give accent
R	= rust/rest

cursieve cijfers/ italic numbers = laat doorklinken/let ring 

RIFF A INTRO & BRUG/BRIDGE
		
rode tablature: lichte flagoletten/
red tabs: light harmonics
E -----------------------------------|------------------------------|
B -----------------------------------|------------------------------|
G -----------------------------------|------------------------------|
D -------7---9---7--------5---7---5--|-2--0-------------------------|
A -----9----------------7------------|-------<1p0>-------2-----2----|
E -7-7--------------5-5--------------|-------------<3>---0---0-0----|

RIFF B - B2 - C - D COMBINATIE/COMBINATION:

de volgende vier riffs worden op meerdere manieren met elkaar gecombineerd/
the following four riffs are combined to each other in superior ways:
RIFF B COUPLET/VERSE

E ------------------|
B ------------------|
G ------------------|
D ---2--2--2-2-2-2--|
A -0-0--0--0-0-0-0--|
E ------------------|

RIFF B2 COUPLET/VERSE 

rode tablature: laatste keer voor riff D weglaten/ 
red tabs: leave out last time before riff D
     
E ------------------|
B ------------------|
G ------------------|
D ------------------|
A ---2--2-----------|
E -0-0--0--0-0-0-0--|

RIFF C COUPLET/VERSE 
E --------------------------------------|
B -----4-4-4-4-4-4----------------------|
G -/4--4-4-4-4-4-4----------------------|
D -/4--4-4-4-4-4-4-----4----4----4----4-|
A ------------------>1/2->1/2->1/2->1/2-|
E --------------------------------------|

RIFF D REFREIN/CHORUS (in combinatie met riff B2/in combination with riff B2) 

E --drumbreak----|---drumbreak----|
B ---------------|----------------|
G -->7-----------|-->6------------|
D -->7-----------|-->7------------|
A -(>5)----------|-(>x)-----------|
E ---------------|-(>5)-----------|

RIFF A2 BRUG/BRIDGE (vooraf aan solo/before going to solo)
		
rode tablature: lichte flagoletten/
red tabs: light harmonics
E -----------------------------------|----------------------------------|
B -----------------------------------|----------------------------------|
G -----------------------------------|----------------------------------|
D -------7---9---7--------5---7---5--|-2--0-----------------------------|
A -----9----------------7------------|-------<1p0>----------------------|
E -7-7--------------5-5--------------|-------------<3>-->0-->2-->3-->4--|

SOLO

(bas in A/bass in A:)

E -----5---5-----5-5-5-----5---5-----5-5-5--|
B -----5---5-----5-5-5-----5---5-----5-5-5--|
G -7b9-------7b9-------7b9-------7b9--------|
D ------------------------------------------|
A ------------------------------------------|
E ------------------------------------------|

(bas in E/bass in E:)

E -------12---12-------12-12-12-------12----12-12-12-|
B -------12---12-------12-12-12-------12----12-12-12-|
G -14b16---------14b16----------14b16----14----------|
D ---------------------------------------------------|
A ---------------------------------------------------|
E ---------------------------------------------------|

(bas in A/bass in A:)

E -----5---5-----5-5-5-----5---5-----5-5-5--|
B -----5---5-----5-5-5-----5---5-----5-5-5--|
G -7b9-------7b9-------7b9-------7b9--------|
D ------------------------------------------|
A ------------------------------------------|
E ------------------------------------------|

(bas in B/bass in B:)

E ------7---7-7-7-7-7-7-7-7\-|
B ------7---7-7-7-7-7-7-7-7\-|
G -9b11----------------------|
D ---------------------------|
A ---------------------------|
E ---------------------------|

(bas in A/bass in A:)

E -------17--------17--17-R-17-R-17-R-17-----------------|
B -16b17-----16b17-----------------------17-17-17-17-17\-|
G -------------------------------------------------------|
D -------------------------------------------------------|
A -------------------------------------------------------|
E -------------------------------------------------------|

(bas in E/bass in E:)

E -----12--------------------------------------|
B -12b----------12-12-12-12-12-12-------12-12\-|
G --------14b16-------------------14b16--------|
D ---------------------------------------------|
A ---------------------------------------------|
E ---------------------------------------------|

(bas speelt D - A/bass plays D - A:)

E ----14-14----15---------|----9-9----9---------|
B -15-------15------15-15-|-10-----10-----10-10-|
G ------------------------|---------------------|
D -drumbreak--------------|-drumbreak-----------|
A ------------------------|---------------------|
E ------------------------|---------------------|

(bas in E/bass in E:)

E -------12-R-12--------12--------12-----|
B -15b17------15b17~~---15b17~~---b17~\--|
G ---------------------------------------|
D ---------------------------------------|
A ---------------------------------------|
E ---------------------------------------|

(bas speelt D - A/bass plays D - A:)

E ----14-14----15---------|----9-9----9---------|
B -15-------15------15-15-|-10-----10-----10-10-|
G ------------------------|---------------------|
D -drumbreak--------------|-drumbreak-----------|
A ------------------------|---------------------|
E ------------------------|---------------------|

(met twee gitaren; bas speelt mee/with two guitars; bass plays along:)     
E -7-7----------------|-5-5--------------|
B -----10-7->10-------|-----8-5->8-------|
G ---------------->8--|-------------->6--|
D --------------------|------------------|
A --------------------|------------------|
E --------------------|------------------|

rode tablature: door de tweede gitaar gespeeld/       
red tabs: played by the second guitar
E -----------------------------|
B -----------------------9~--\-|
G -------------------7-8-9~--\-|
D ----->6-->7-->8--9-----------|
A ->7--------------------------|
E -----------------------------|

RIFF C2 COUPLET/VERSE

na solo volgen riff B en B2 zonder gitaar 
waarna de gitaar invalt met een variatie op riff C/
after the solo riff B and B2 follows without guitar 
and after this the guitar enters with a variation on riff C:
E --------------------------|
B --------------------------|
G --------------------------|
D ->4---->4---->4->4->4->4--|
A ->2---->2---->2->2->2->2--|
E --------------------------|

EINDE SONG/END OF SONG

uitloop van E5 accoord aan het eind van riff A met wat vibrato/
outlet of E5 chord at the end of riff A with some vibrato

            
            
Suggest correction
Creating personal tab
Creating personal tab
You can edit any tab online and save it as your Personal.

You can edit, replace or remove any tab part or add personal notes – all changes will be seen only by you.

Personal tabs can be accessed anytime from any device, even offline.
Learn more »
Give kudos to tab author, rate the tab!
1 2 3 4 5
comments
print report bad tab
guest
You may want to rate the tab now too:
select rating
Wanna post a correction for this tab? Suggest correction