Oops, an error
Loading. Please wait.

Angeldust tab

207 views 1 this week
no commentswrite comment
1 2 3 4 5
2 more votes to show rating
add to favorites
×
Save as Personal and add changes to this tab that will be seen only by you. Learn more ›
×
You can save this tab as Personal to edit and correct it or add notes. All changes will be seen only by you. Learn more »
launch autoscroll
font size
0
reset
how to read this tab
guitar tuner
edit
Autoscroll
slow
fast
+/-
esc
set tempo
stop
Author
Difficulty
7h8	= hammer-on
7p5	= pull-off
8b9	= druk 8e fret op naar 9e/bend 8th fret to 9th
7b8r7	= druk 7e fret op naar 8e en laat weer terugkomen in oude positie/
 	   bend 7th fret to 8th and release to old position
7b	= druk de snaar een klein beetje op/bend the string a little bit
~	= vibrato/vibration
~~	= veel vibrato/much vibration
\	= slide omlaag/slide down
/	= slide omhoog/slide up
<	= strijk plectrum over snaren omlaag/bow down pick across strings
x	= percussieslag/percussionstrike
0	= afdempen/mute strings
(2)	= wordt af en toe gespeeld/ is played sometimes
<7>	= kunstmatige flagolet/artificial harmonic
>7	= accent geven/give accent
*	= onduidelijk/unclear
R	= rust/rest

RIFF A
		
rode tablature: bas speelt hier tijdens het invallen ook een Bb majeur akkoord/
red tabs: bass plays here during entering also a Bb major chord
E -----------------------------------------|
B -----------------------------------------|
G ->7/9-(9)-9-(9)->8-------7-(7)-7-(7)-6---|
D --x-x-(x)-x-(x)--x-------x-(x)-x-(x)-x---|
A ->5/7-(7)-7-(7)->6-x-(x)-5-(5)-5-(5)-4---|
E -------------------------6-(6)-6-(6)-5-x-|

RIFF B

E -------------------------------------------------|
B -------------------------------------------------|
G -------------------------------------------------|
D ---2-R---2-R---2-R---2-R---2-R---2-R---2-R---2-R-|
A ---2-R---2-R---2-R---2-R---2-R---2-R---2-R---2-R-|
E -0-0-R-0-0-R-0-0-R-0-0-R-0-0-R-0-0-R-0-0-R-0-0-R-|

E -------------------------------------------------|
B -------------------------------------------------|
G -------------------------------------------------|
D ---2-R---2-R---2-R---2-R---2-R---2-R---2-R---2-R-|
A ---2-R---2-R---2-R---2-R---2-R---2-R---2-R---2-R-|
E -0-0-R-0-0-R-0-0-R-0-0-R-0-0-R-0-0-R-0-0-R-0-0-R-|

E ---------------------------------|---------------------------------|
B ---------------------------------|---------------------------------|
G ---------------------------------|---------------------------------|
D ---5-5-5->5R->5R->5R->5R->5R->5R-|---4-4-4->4R->4R->4R->4R->4R->4R-|
A -2-3-3-3->3R->3R->3R->3R->3R->3R-|-3-2-2-2->2R->2R->2R->2R->2R->2R-|
E ---------------------------------|---------------------------------|

E -------------------------|-----------------------------------|
B -------------------------|-----------------------------------|
G -------------------------|-------2R---2R---2R---2R---2R---2R-|
D ---2-R---2-R---2-R---2-R-|-------2R---2R---2R---2R---2R---2R-|
A ---2-R---2-R---2-R---2-R-|-0-0-0-0R-0-0R-0-0R-0-0R-0-0R-0-0R-|
E -0-0-R-0-0-R-0-0-R-0-0-R-|-----------------------------------|

E ---------------------------------|--------------------|
B ---------------------------------|--------------------|
G ---------------------------------|--------------------|
D ---5-5-5->5R->5R->5R->5R->5R->5R-|-5-5-5->4R->4R------|
A -2-3-3-3->3R->3R->3R->3R->3R->3R-|-3-3-3->2R->2R-2\---|
E ---------------------------------|--------------------|

RIFF C TUSSENSTUK/INTERLUDE (bas in G/bass in G)

rode tablature: speel staccato/
red tabs: play staccato
E --------------------------|--------------------------|
B --------------------------|--------------------------|
G ----------->3b------------|-----------5b6~~----------|
D -5--3--5---------5~-------|-5--3--5------------------|
A ------------------------5-|------------------------5-|
E ----------------------3-3-|----------------------3-3-|

E --------------------------|---------------------------------|
B --------------------------|---------------------------------|
G -----------><3b>----------|---------------------------------|
D -5--3--5-----------5~~----|->5->3---------------------------|
A --------------------------|------->5->4->3->1---------------|
E --------------------------|------------------->3->2->1-3b---|

RIFF D TUSSENSTUK/INTERLUDE (bas speelt/bass plays: Bb - A - G - E)

E -------------------------------------------------|
B -------------------------------------------------|
G -------------------------------------------------|
D -2-----------------------------------------------|
A -2-----------------------------------------------|
E -0---0-00-00-00-00-00-00-00-00-00-00-00-00-00-00-|

E ------------------------------------------|
B ------------------------------------------|
G ------------------------------------------|
D ------------------------------------------|
A ------------------------------------------|
E -00-00-00-00-00-00-00-00-00-00-00-00-00-0-|

SOLO 1 bas in G/bass in G)

E -----------------------------------------------------------------------------|
B -----------------------------------------------------------------------------|
G -3p0-0-5p0-0-3p0-0-5p0-0-3p0-0-5p0-0-3p0-0-6p0-0-5p0-0-3p0-0-3p0-0-5p0-0-3p0-|
D -----------------------------------------------------------------------------|
A -----------------------------------------------------------------------------|
E -----------------------------------------------------------------------------|

E -----------------------------------------------------|
B -----------------------------------------------------|
G -5p0-0-3p0-0-6p0-0-5p0-0-3p0-0-3p0-5p0-0-3p0-0-5p0-0-|
D -----------------------------------------------------|
A -----------------------------------------------------|
E -----------------------------------------------------|

AFRONDING SOLO/ROUNDING SOLO

E ---------------------------------|
B ->5->4->3------------------------|
G ->5->4->3->5->4->3---------------|
D ---------->5->4->3->5->4->3------|
A ------------------->5->4->3-3b---|
E ----------------------------3b---|

RIFF E TUSSENSTUK/INTERLUDE (bas in E/bass in E)
rode tablature: pluk met vingers/
red tabs: pick with fingers
E --------------->0---------->0-------------0---------|
B --------------->3---------->2-----0h1-2-1-0---------|
G ------------------------------------------------<---|
D -2----------------------------------------------<---|
A -2--------------------------------------------------|
E -0--------------------------------------------------|

SOLO 2 (bas in G/bass in G)

(indicatie/indication)

rode tablature: buig langzaam/      
red tabs: bend slowly

blauwe tablature: dit stuk meerdere malen (wild) spelen/ 
blue tabs: play this part a greater times (savage)
E ----------------------------|
B ----------------------------|
G -*3--5b6----5b7r5p3p0----*--|
D ----------------------------|
A ----------------------------|
E ----------------------------|

AFRONDING SOLO/ROUNDING SOLO

rode tablature: speel een beetje als kunstmatige flagolet/ 
red tabs: play a bit like artificial harmonics
E ------------------------------------|
B ------------------------------------|
G ->3h5->3----------------------------|
D --------->5->4->3-------------------|
A ------------------>5->4->3->1-------|
E ------------------------------3~~---|

opmerking: hierna volgt nog riff D als onderdeel van het tussenstuk/ 
note: after this, riff D follows as part of the interlude

EINDE SONG/END OF SONG
E -----------------------------------|
B -----------------------------------|
G -----------------------------------|
D ->2----------fade out--------------|
A ->2--------------------------------|
E ->0--------------------------------|


            
            
Suggest correction
Creating personal tab
Creating personal tab
You can edit any tab online and save it as your Personal.

You can edit, replace or remove any tab part or add personal notes – all changes will be seen only by you.

Personal tabs can be accessed anytime from any device, even offline.
Learn more »
Give kudos to tab author, rate the tab!
1 2 3 4 5
comments
print report bad tab
guest
You may want to rate the tab now too:
select rating
Wanna post a correction for this tab? Suggest correction