Oops, an error
Loading. Please wait.

Auf Der Axe tab

548 views 1 this week
no commentswrite comment
1 2 3 4 5
2 more votes to show rating
add to favorites
×
Save as Personal and add changes to this tab that will be seen only by you. Learn more ›
×
You can save this tab as Personal to edit and correct it or add notes. All changes will be seen only by you. Learn more »
launch autoscroll
font size
0
reset
how to read this tab
guitar tuner
edit
Autoscroll
slow
fast
+/-
esc
set tempo
stop
Author
Difficulty
7h8	= hammer-on
7p5	= pull-off
8b9	= druk 8e fret op naar 9e/bend 8th fret to 9th
7b	= druk de snaar een klein beetje op/bend the string a little bit
~	= vibrato/vibration
~~	= veel vibrato/much vibration
\	= slide omlaag/slide down
/	= slide omhoog/slide up
<	= strijk plectrum over snaren omlaag/bow down pick across strings
0	= afdempen/mute strings
<7>	= kunstmatige flagolet/artificial harmonic
>7	= accent geven/give accent
*	= onduidelijk/unclear
R	= rust/rest

cursieve cijfers/ italic numbers = laat doorklinken/let ring 

RIFF A  
E ---------------------------------------|
B ---------------------------------------|
G ---------------------------------------|
D ---------------------------------------|
A -2-4-R---5-4-R---2-4-R---5-4-2-4-R-----|
E -0-2-R---3-2-R---0-2-R---3-2-0-2-R-----|

opmerking: speel alle accoorden met een accent/
note: play all chords with an accent

RIFF B
E -----------------|--------------------|--------------------|---------------------|
B -----------------|--------------------|--------------------|---------------------|
G -2-4-4-4-4-4-4-4-|->4/5\4-4-4-4-4-4-4-|->4/7\4-4-4-4-4-4-4-|-5\4-2h4-4-4-4-4-4-4-|
D -2-4-4-4-4-4-4-4-|->4/5\4-4-4-4-4-4-4-|->4/7\4-4-4-4-4-4-4-|-5\4-2h4-4-4-4-4-4-4-|
A -----------------|--------------------|--------------------|---------------------|
E -----------------|--------------------|--------------------|---------------------|

RIFF C
     
E ---0----------------------------------------R-------------------|
B ---0----------------------------------------R->6------->5--->3--|
G --------------------------------------------R->7------->6--->4--|
D -2------------------------------------------R->8------->7--->5--|
A -2------------------------------------------R-------------------|
E -0------------------------------------------R-------------------|
E -----------------------------------------------------------------|
B -----------------------------------------------------------------|
G -----------------------------------------------------------------|
D -----------------------------------------------------------------|
A -2-2-2-2-2-2-2-2-2-2-2-2-2-2-2-2-2-2-2-2-2-2-2-2-2-2-2-2-2-2-2-2-|
E -0-3-0-3-0-3-0-3-0-3-0-3-0-3-0-3-0-3-0-3-0-3-0-3-0-3-0-3-0-3-0-3-|

E -----------------------------------------------------------------|
B -----------------------------------------------------------------|
G -----------------------------------------------------------------|
D -----------------------------------------------------------------|
A -2-2-2-2-2-2-2-2-2-2-2-2-2-2-2-2-2-2-2-2-2-2-2-2-2-2-2-2-2-2-2-2-|
E -0-3-0-3-0-3-0-3-0-3-0-3-0-3-0-3-0-3-0-3-0-3-0-3-0-3-0-3-0-3-0-3-|

E -------------------|   
B ->6------->5--->3--|     
G ->7------->6--->4--|     
D ->8------->7--->5--|      
A -------------------|     
E -------------------|

opmerking: het snelle gedeelte met de steeds herhalende E5 - G combinatie 
kan het makkelijkst gespeeld worden met het E5 (02xxxx) akkoord als opslag 
en het G (32xxxx) akkoord als neerslag/
note: the fast part with the again and again repeating E5 - G combination
can play as easiest with the E5 (02xxxx) chord as upstroke and the G (32xxxx)
chord als downstroke

SOLO 1 (bas als riff B/bass like riff B)

(bij benadering/at approach)
E -----|------------------------------------------------------------------|
B -----|-10b----10~-10~-10~-10~-10~-10~-10~-10~-10~-10~-10~-10~-10~-10~---|
G -----|-11b----11~-11~-11~-11~-11~-11~-11~-11~-11~-11~-11~-11~-11~-------|
D -----|------------------------------------------------------------------|
A -7\--|------------------------------------------------------------------|
E -----|------------------------------------------------------------------|

E --------------------------------------------------------------------------|
B --------------------------------------------------------------------------|
G ---7-10--------*-zeer onduidelijk gedeelte-*-<10~~>-10~-10~----9-10-9-7~~-|
D -9------<9~>---*----very unclear part------*--------9~------9~------------|
A --------------------------------------------------------------------------|
E --------------------------------------------------------------------------|

SOLO 2 (bas als riff B/bass like riff B) 

(bij benadering/at approach)

E ----------|--------------------------------------------|
B ----------|-/12~--/12~--12b---12~--12-12-12-12-12p10~--|
G ----------|--------------------------------------------|
D ----------|--------------------------------------------|
A -<--------|--------------------------------------------|
E -<---12\--|--------------------------------------------|

rode tablature: wordt steeds iets meer of minder opgeduwd en doordat 
op verschillende posities wordt aangeslagen zijn de flagoletten op 
verschillende hoogten/
red tabs: is bended ever a little more or less and through striking at
different positions the harmonics are sounding at different levels
E -----------------------------------------------------------------------------|
B -----------------------------------------------------------------------------|
G *------------------7-----------*--<9b11>-<9b11>-<9b11>-<9b11>----------------|
D *--------<9~>--7-8---9-8-7-8-9-*------------------------------9-7-----<7~~>--|
A *------9-----------------------*----------------------------------9-7--------|
E *-7-10-------------------------*---------------------------------------------|

EINDE/END

E ---------------------------------|
B ---------------------------------|
G ---------------------------------|
D ---------------------------------|
A -2-4-R---5-4-R---7-4-R---4-R-----|
E -0-2-R---3-2-R---5-2-R---2-R-----|

opmerking: speel alle accoorden met een accent/
note: play all chords with an accent


Good luck !  DopeStar
Suggest correction
Creating personal tab
Creating personal tab
You can edit any tab online and save it as your Personal.

You can edit, replace or remove any tab part or add personal notes – all changes will be seen only by you.

Personal tabs can be accessed anytime from any device, even offline.
Learn more »
Give kudos to tab author, rate the tab!
1 2 3 4 5
comments
print report bad tab
guest
You may want to rate the tab now too:
select rating
Wanna post a correction for this tab? Suggest correction