Oops, an error
Loading. Please wait.

Bad Year For Rock Roll tab

462 views 1 this week
no commentswrite comment
1 2 3 4 5
1 last vote to show rating
add to favorites
×
Save as Personal and add changes to this tab that will be seen only by you. Learn more ›
×
You can save this tab as Personal to edit and correct it or add notes. All changes will be seen only by you. Learn more »
launch autoscroll
font size
0
reset
how to read this tab
guitar tuner
edit
Autoscroll
slow
fast
+/-
esc
set tempo
stop
Author
Difficulty
7p5	= pull-off
b9	= sla opgeduwde toon aan /strike bended tone
7b8r7	= druk 7e fret op naar 8e en laat weer terugkomen in oude positie/
 	   bend 7th fret to 8th and release to old position
7b	= druk de snaar een klein beetje op/bend the string a little bit
~	= vibrato/vibration
~~	= veel vibrato/much vibration
\	= slide omlaag/slide down
/	= slide omhoog/slide up
x	= percussieslag/percussionstrike
0	= afdempen/mute strings
0	= licht afdempen/mute strings slightly
(2)	= wordt af en toe gespeeld/ is played sometimes
<7>	= kunstmatige flagolet/artificial harmonic
>7	= accent geven/give accent
^	= opslag/upstroke
(	= als arpeggio aangeslagen/striked as arpeggio
R	= rust/rest

cursieve cijfers/ italic numbers = laat doorklinken/let ring 

INTRO
E ---------------------|---------------------|---------------------|
B ---------------------|---------------------|---------------------|
G ---------------------|---------------------|---------------------|
D ->7->7->7->7->7------|->7->7->7->7->7------|->7->7->7->7->7------|
A ->5->5->5->5->5->7-R-|->5->5->5->5->5->7-R-|->5->5->5->5->5->7-R-|
E ---------------->5-R-|---------------->5-R-|---------------->5-R-|

RIFF A COUPLET/VERSE

rode tablature: laat de laatste keer voor de overgang naar het middenstuk
en voor het einde van de song, weg/ 
red tabs: leave out the last time before the transition to the interlude
and before the end of the song
E -----------------------------------|-----------------------------------|
B -----------------------------------|-----------------------------------|
G -----------------------------------|-----------------------------------|
D -----------------------------------|------------------>7->7->7->7------|
A -----------------------------------|------------------>5->5->5->5->7-R-|
E -(0)0-0-3-4b--0-3-4b--0-3-4b-0-3-4-|-0-0-3-4b--0-4b-R------------->5-R-|

RIFF B REFREIN/CHORUS (eerste keer/first time) 

rode tablature: gespeeld door bas/
red tabs: played by bass
E -----------------------------|---------------------|
B ----9--9--9--9--9--9--9-7--5-|---------------------|
G ----x--x--x--x--x--x--x-x--x-|-2--2--2-2-2--2-2-2--|
D -R--6--6--6--6--6--6--6-4--2-|-0--0--0-0-0--0-0-0--|
A -----------------------------|---------------------|
E -0---------------------------|---------------------|

blauwe tablature: lichte kunstmatige flagolet/ 
blue tabs: light artificial harmonic
E ------------------------------------|-------->0--------0--------|
B ------------------------------------|-----------3-3-3-----3-3\--|
G ------------------------------------|---------------------------|
D ---2------<4p2>------------2--2--2--|---------------------------|
A -0-0--3-0-------0-3b-p0--0-0--0--0--|-2b------------------------|
E ------------------------------------|-0-------------------------|

rode tablature: gespeeld door bas/
red tabs: played by bass
E -----------------------------|---------------------|
B ----9--9--9--9--9--9--9-7--5-|---------------------|
G ----x--x--x--x--x--x--x-x--x-|-2--2--2-2-2--2-2-2--|
D -R--6--6--6--6--6--6--6-4--2-|-0--0--0-0-0--0-0-0--|
A -----------------------------|---------------------|
E -0---------------------------|---------------------|

E ----------------------------------|----------------------------|
B ----------------------------------|----------------------------|
G ----------------------------------|----------------------------|
D ---2------4p2------------2--2--2--|-4-4--4--4-4-4-4-4-4-4-4-4\-|
A -0-0--3-0-----0-3b-p0--0-0--0--0--|-2-2--2--2-2-2-2-2-2-2-2-2\-|
E ----------------------------------|----------------------------|

opmerking: bas speelt twee maal E - D - A - E/ 
note: bass plays two times E - D - A - E 
RIFF B2 REFREIN/CHORUS (tweede en derde keer/second and third time) 

E -----------------------|------------------------|
B -----------------------|------------------------|
G -----------------------|------------------------|
D -----------------------|-7--7-7--7-x-7--7-7--7--|
A -2-----b------r------x-|-5--5-5--5-x-5--5-5--5--|
E -0---------------------|------------------------|

E -----------------------|----------------0--0-0--|
B -----------------------|----------------0--0-0--|
G -----------------------|------------------------|
D -2--2-2--2--2--2-2--2--|------------------------|
A -0--0-0--0--0--0-0--0--|-2--2--2--2-------------|
E -----------------------|-0--0--0--0--x----------|

E -----------------------|------------------------|
B -----------------------|------------------------|
G -----------------------|------------------------|
D -----------------------|-7--7-7--7-x-7--7-7--7--|
A -2b-2--2--2--2--2-2-2--|-5--5-5--5-x-5--5-5--5--|
E -0--0--0--0--0--0-0-0--|------------------------|

rode tablature: druk steeds iets meer op/
red tabs: bend a little more again and again
E -----------------------|--------------------------------------|
B -----------------------|--------------------------------------|
G -----------------------|--------------------------------------|
D -2--2-2--2--2--2-2--2--|->4-----------------------------------|
A -0--0-0--0--0--0-0--0--|->2--2-2-2-2-2b-b2b-b2b-b2b-b2b-b2b-R-|
E -----------------------|--------------------------------------|

opmerking: wordt de derde keer met enige variaties gespeeld/
note: is played the third time with some variations
OVERGANG NAAR MIDDENSTUK/TRANSITION TO INTERLUDE 
E ---------------------|---------------------|---------------------|
B ---------------------|---------------------|---------------------|
G ---------------------|---------------------|---------------------|
D ->7->7->7->7->7------|->7->7->7->7->7------|->7->7->7->7->7------|
A ->5->5->5->5->5->7-R-|->5->5->5->5->5->7-R-|->5->5->5->5->5->7-R-|
E ---------------->5-R-|---------------->5-R-|---------------->5-R-|

TUSSENSTUK/INTERLUDE

E -----------------|-----------------|-----------------|------------>^0--|
B -----------------|-----------------|-----------------|------------>^0--|
G -----------------|-----------------|-----------------|-----------0>^0--|
D -----------------|-----------------|-----------------|-----------------|
A ---2-------------|-----------------|-----------------|-2---------------|
E -0-0-------------|-/5~-------------|-/5~-------x-3b--|-0-0-------------|

E -0---------->^0--|-0---------------|-(0---------------|----------->^0--|
B -0---------->^0--|-3---------------|-(2---------------|----------->^0--|
G -1---------------|-2---------------|-(2----------->0--|----------->^1--|
D -----------------|-----------------|-------------->0--|----------------|
A -----------------|-----------------|------------------|-2--------------|
E -----------------|-----------------|------------------|-0--------------|

E -0---------------|-0---------------|-(0---------------|----------------|
B -0---------------|-3---------------|-(2---------------|------------>0--|
G -1------------1--|-2---------------|-(2---------------|------------>1--|
D -----------------|-0---------------|-(0---------------|----------------|
A -----------------|-----------------|------------------|-2--------------|
E -----------------|-----------------|------------0-3b--|-0--------------|

E -0---------------|-0---------------|-(0---------------|
B -0---------------|-3---------------|-(2---------------|
G -1------------1--|-2---------------|-(2---------------|
D -----------------|-0---------------|-(0------------0--|
A -----------------|-----------------|------------------|
E -----------------|-----------------|------------------|

rode tablature: druk steeds iets meer op en laat aan het eind weer terugkomen/
red tabs: bend a little more again and again and release at the end
E ---------------------------------------------|
B ---------------------------------------------|
G ---------------------------------------------|
D ---------------------------------------------|
A -2-2-2--2-2-2--2-2-2b-b2b-b2b-b2b-b2r-b2r-2\-|
E ---------------------------------------------|

opmerking: bas speelt:/note: bass plays:
1) E - A - A - G,E
2) E - D - A - G,E
3) E - A - A - G,E
4) E - A - A - B

EINDE SONG/END OF SONG
E ---------------------|---------------------|---------------------|
B ---------------------|---------------------|---------------------|
G ---------------------|---------------------|---------------------|
D ->7->7->7->7->7------|->7->7->7->7->7------|->7->7->7->7->7------|
A ->5->5->5->5->5->7-R-|->5->5->5->5->5->7-R-|->5->5->5->5->5->7-R-|
E ---------------->5-R-|---------------->5-R-|---------------->5-R-|

E ------------------------------------|
B ------------------------------>^0-R-|
G ------------------------------>^1-R-|
D ------------------------------>^0-R-|
A --->2---~----~~----~~--------->^2-R-|
E -0->0------------------------->^0-R-|

            
            
Suggest correction
Creating personal tab
Creating personal tab
You can edit any tab online and save it as your Personal.

You can edit, replace or remove any tab part or add personal notes – all changes will be seen only by you.

Personal tabs can be accessed anytime from any device, even offline.
Learn more »
Give kudos to tab author, rate the tab!
1 2 3 4 5
comments
print report bad tab
guest
You may want to rate the tab now too:
select rating
Wanna post a correction for this tab? Suggest correction