Oops, an error
Loading. Please wait.

Beerblast tab

266 views 1 this week
no commentswrite comment
1 2 3 4 5
2 more votes to show rating
add to favorites
×
Save as Personal and add changes to this tab that will be seen only by you. Learn more ›
×
You can save this tab as Personal to edit and correct it or add notes. All changes will be seen only by you. Learn more »
launch autoscroll
font size
0
reset
how to read this tab
guitar tuner
edit
Autoscroll
slow
fast
+/-
esc
set tempo
stop
Author
Difficulty
verklaring tekens/explanation signs:
7h8	= hammer-on
7p5	= pull-off
8b9	= druk 8e fret op naar 9e/bend 8th fret to 9th
b9	= sla opgeduwde toon aan /strike bended tone
7b8r7	= druk 7e fret op naar 8e en laat weer terugkomen in oude positie/
	  bend 7th fret to 8th and release to old position
7b	= druk de snaar een klein beetje op/bend the string a little bit
~	= vibrato/vibration
\	= slide omlaag/slide down
/	= slide omhoog/slide up
x	= percussieslag/percussionstrike
(2)	= wordt af en toe gespeeld/ is played sometimes
<7>	= kunstmatige flagolet/artificial harmonic
^	= opslag/upstroke
R	= rust/rest
 
RIFF A (bas in G/bass in G)
E --------------------|--------------------|
B --6b8----b8-r6------|--------------------|
G ----------------5-3-|--5b6----b6-r5--3-0-|
D --------------------|--------------------|
A --------------------|--------------------|
E --------------------|--------------------|

opmerking: wordt gedubt door 2e gitaar; in detail iets anders/
note: is dubbed by 2nd guitar; different in detail
RIFF B COUPLET/VERSE

	     1.2.3. keer/time			4. keer/time
E -----------------|------------------|------------------|
B -----------------|------------------|------------------|
G -----------------|------------------|------------------|
D -----------------|--5-5-5-5-5-5-5---|-3----------------|
A -5-5-5-5-5-5-5-5-|-/3-3-3-3-3-3-3---|-3----------------|
E -3-3-3-3-3-3-3-3-|------------------|-1----------------|

opmerking: sla stuwend aan/
note: strike pumping
RIFF C BRUG/BRIDGE

E --------------|----------------|------------------|--------------------|
B --------------|----------------|------------------|--------------------|
G --------------|----------------|------------------|--------------------|
D -3-3-3--3--3--|-5-5-5--5-5-5-5-|---^5-R-^5-R-^5-R-|-----^5-R-^5-R-^5-R-|
A -1-1-1--1--1--|-3-3-3--3-3-3-3-|-3-^5-R-^5-R-^5-R-|-3-3-^5-R-^5-R-^5-R-|
E --------------|----------------|-1-^3-R-^3-R-^3-R-|-1-1-^3-R-^3-R-^3-R-|

RIFF D REFREIN/CHORUS

	     1.2.3. keer/time
E ------------------------------------|-----------------------------|
B -8--R-8--R-8--R-8--R-8--R-8--R-8--\-|-3-R-3-R-3-R-3-R-3-R-3-R-3-/-|
G -9--R-9--R-9--R-9--R-9--R-9--R-9--\-|-4-R-4-R-4-R-4-R-4-R-4-R-4-/-|
D -10-R-10-R-10-R-10-R-10-R-10-R-10-\-|-5-R-5-R-5-R-5-R-5-R-5-R-5-/-|
A ------------------------------------|-----------------------------|
E ------------------------------------|-----------------------------|

	     4. keer/time
E -------------------------|
B -------------------------|
G -------------------------|
D -3-----------------------|
A -3-----------------------|
E -1-----------------------|

opmerking: de tweede keer (voor solo) is de vierde maat twee keer zolang en wordt 
het accoord met vibrato gespeeld en eindigt het met feedback/
note: the second time (before solo), the fourth bar is two times as long and 
the chord is played with vibrato and ends with feedback

RIFF E TUSSENSTUK/INTERLUDE 
E --------------------------|-------------------------|
B --------------------------|-------------------------|
G -3-3-3----3-3-3----3-3----|-5-5-5----3-3-3-----2-p0-|
D -3-3-3----3-3-3----3-3----|-5-5-5----3-3-3-----2-p0-|
A --------------------------|-------------------------|
E -------3~-------3~-----3~-|-------3~-------3~-------|

SOLO 

(bas in G en tweede gitaar met ritmepartij als riff E/
bass in G and second guitar with rhythmpart like riff E)
bij benadering/at approach:

rode tablature: lichte flagolet/
red tabs: light artificial harmonic
E -------------------------------|---------------------------------|
B -------------------------------|---------------------------------|
G -------------------------<3>~--|----------------------------<3>~-|
D --------3-5-----------3--------|-------<3>-<5>-----------3-------|
A -/3h5-5-------3h5---5----------|-3h5-3-----------3-5-3-5---------|
E -------------------------------|---------------------------------|

E ---------------------------------------|------------------------------------|
B ---------------------------------------|------------------------------------|
G -3brp0----0-0---<3br>p0----0-0-<0>-<0>-|---------------------0-<3b>-<3>-0-0-|
D -------3b---------------3b-------------|---------3-------0-3----------------|
A ---------------------------------------|-2h3h5-3---5---3--------------------|
E ---------------------------------------|------------------------------------|

EINDE SONG/END OF SONG
E --------------------------|-------------------------|
B --------------------------|-------------------------|
G -3-3-3----3-3-3----3-3----|-5-5-5----3-3-3----2-2-2-|
D -3-3-3----3-3-3----3-3----|-5-5-5----3-3-3----2-2-2-|
A --------------------------|-------------------------|
E -------3~-------3~-----3~-|-------3~-------3~-------|

E --------------------------|-------------------------|-------------------------|
B --------------------------|-------------------------|-------------------------|
G -3-3-3----2-2-2----3-3----|-3-----3-----3-----3-----|-------------------------|
D -3-3-3----2-2-2----3-3----|-3-----3-----3-----3-----|------5------------------|
A --------------------------|-------------------------|------5----feedback------|
E -------3~-------3~-----3~-|---3-R---3-R---3-R---3-R-|-1-1--3-------------3\-R-|

            
            
Suggest correction
Creating personal tab
Creating personal tab
You can edit any tab online and save it as your Personal.

You can edit, replace or remove any tab part or add personal notes – all changes will be seen only by you.

Personal tabs can be accessed anytime from any device, even offline.
Learn more »
Give kudos to tab author, rate the tab!
1 2 3 4 5
comments
print report bad tab
guest
You may want to rate the tab now too:
select rating
Wanna post a correction for this tab? Suggest correction