Oops, an error
Loading. Please wait.

Bitch On Wheels Tab

195 views 1 this week
no commentswrite comment
1 2 3 4 5
2 more votes to show rating
add to favorites
launch autoscroll
font size
0
reset
how to read this tab
guitar tuner
Autoscroll
slow
fast
+/-
esc
set tempo
stop
Help us to improve Ultimate-Guitar.com Take our survey!
×
Author
Difficulty
novice
7h8	= hammer-on
7b	= druk de snaar een klein beetje op/bend the string a little bit
~	= vibrato/vibration
\	= slide omlaag/slide down
/	= slide omhoog/slide up
0	= licht afdempen/mute strings slightly
R	= rust/rest

RIFF A COUPLET/VERSE
E -------------|-------------|
B -------------|-------------|
G -------------|-------------|
D -------------|-------------|
A -4--4-4--4-4-|-4--4--4--4--|
E -0--2-2--2-2-|-0--2--2--2--|

RIFF B BRUG/BRIDGE

rode tablature: snelle slide/
red tabs: fast slide
     
E ------------------------------|
B ------------------------------|
G ---4--------------------------|
D ---2------------6-6/7~---5/6\-|
A ---2--------------------------|
E -0-0--------------------------|

RIFF C REFREIN/CHORUS

rode tablature: snelle slide/
red tabs: fast slide

	1.3.5. keer/time		2.4.6. keer/time
E ----------------------|----------------------|
B ----------------------|----------------------|
G ----------------------|----------------------|
D -4--4--4--4--4-44-44--|----------------------|
A -2--2--2--2--2-22-22--|-4--4--4--4--4-44-44--|
E ----------------------|-2--2--2--2--2-22-22--|

	vervolg/continuation
E ----------------------|-------------|
B ----------------------|-------------|
G ----------------------|-------------|
D ----------------------|-6/7~---5/6\-|
A -7--7--7--7--7-77-77--|-------------|
E -5--5--5--5--5-55-55--|-------------|

SOLO 

(bas speelt: C# - hoge E - B - F#/bass plays: C# - high E - B - F#)

RIFF D (na solo/after solo)
E -------------|--------------|-------------|--------------|
B -------------|--------------|-------------|--------------|
G -------------|-2b-----------|-------------|-2b-----------|
D -2--4-4--4-4-|-----4-4--4-4-|-2--4-4--4-4-|-----4-4--4-4-|
A -------------|--------------|-------------|--------------|
E -------------|--------------|-------------|--------------|

E --------------|--------------|-------------|--------------|
B --------------|--------------|-------------|--------------|
G --------------|-2b-----------|-----break---|--------------|
D -2h4-4-4--4-4-|-----4-4--4-4-|-------------|--------------|
A --------------|--------------|-7b----------|-0--2~--------|
E --------------|--------------|-0-----------|--------------|

EINDE/END

E --------------|--------------|
B --------------|--------------|
G --------------|--------------|
D --------------|--------------|
A -4-R----------|-2--4-R-------|
E -2-R----------|-0--2-R
Suggest correction
Give kudos to tab author, rate the tab!
1 2 3 4 5
comments
print report bad tab
guest
You may want to rate the tab now too:
select rating
Wanna post a correction for this tab? Suggest correction