Oops, an error
Loading. Please wait.

Cock-Teaser tab

641 views 1 this week
no commentswrite comment
1 2 3 4 5
1 last vote to show rating
add to favorites
×
Save as Personal and add changes to this tab that will be seen only by you. Learn more ›
×
You can save this tab as Personal to edit and correct it or add notes. All changes will be seen only by you. Learn more »
launch autoscroll
font size
0
reset
how to read this tab
guitar tuner
edit
Autoscroll
slow
fast
+/-
esc
set tempo
stop
Author
Difficulty
7h8	= hammer-on
7p5	= pull-off
8b9	= druk 8e fret op naar 9e/bend 8th fret to 9th
7b8r7	= druk 7e fret op naar 8e en laat weer terugkomen in oude positie/
 	   bend 7th fret to 8th and release to old position
~	= vibrato/vibration
~~	= veel vibrato/much vibration
/	= slide omhoog/slide up
<	= strijk plectrum over snaren omlaag/bow down pick across strings
0	= afdempen/mute strings
10.10	= speel zeer snel achter elkaar/play very fast behind each other
>7	= accent geven/give accent

cursieve cijfers/ italic numbers = laat doorklinken/let ring 
INTRO
		
rode tablature: demp alleen de lage E snaar af/
red tabs: mute only the low E string
E ----------------------------------------------------------|
B ----------------------------------------------------------|
G -------------------------------------drukroffels/---------|
D ->10------------->8-------------------drumfills-----------|
A ->8------>10----->6------>8-------------------------------|
E ->8------>8------>6------>6-----------------------------/-|

E -------------------------------|
B -------------------------------|
G -------------------------------|
D ->10------------->8------>3----|
A ->8------>10----->6------>1----|
E ->8------>8------>6------------|

RIFF A COUPLET/VERSE

E ---------------------------------|-----------------------------------|
B ---------------------------------|-----------------------------------|
G ---------------------------------|--->1---->3---->1------------------|
D ---------------------------------|--->1---->3---->1------------------|
A ---------------------------------|--------------------3-----------2--|
E -1-1-1-1-1-1-1-1-1-1-1-1-1-1-1-1-|-1-----1------1-------1-1-1-1-1-0--|

E ---------------------------------|-----------------------------------|
B ---------------------------------|-----------------------------------|
G ---------------------------------|--->1---->3---->1---------3p1------|
D ---------------------------------|--->1---->3---->1---------3p1-3p1--|
A ---------------------------------|--------------------3---------3p1--|
E ->1--1-1-1-1-1-1-1-1-1-1-1-1-1-1-|-1-----1------1-------1-1----------|

RIFF B REFREIN/CHORUS

E --------------------------------|
B --------------------------------|
G --------------------------------|
D -------->9--9-9-9-7-7-7---------|
A ->7----->7--7-7-7-5-5-5-7-7-7---|
E ->0--0------------------5-5-5---|

RIFF C BRUG/BRIDGE

E ---------------------------|----------------------------|
B ---------------------------|----------------------------|
G ---------------------------|----------------------------|
D ----------------9-9-9->7---|----------------7/9--9->7~--|
A ---9--9--9-9-9--7-7-7->5~--|---9--9--9-9-9--5/7--7->5~--|
E -5/7--7--7-7-7-------------|-5/7--7--7-7-7--------------|

E ----------------------------|----------------------------|
B ----------------------------|----------------------------|
G ----------------------------|----------------<-----------|
D ----------------7/9--9->7~--|----------------<-----<-----|
A -7/9--9-9--9-9--5/7--7->5~--|---9--9-9--9-9--------<-----|
E -5/7--7-7--7-7--------------|-5/7--7-7--7-7--------------|

SOLO

1e gedeelte (bij benadering); 
2e gitaar speelt afgedempte G tonen op 3e positie lage E snaar in 16'den/
1st part (at approach); 
2nd guitar plays muted G tones at 3th position low E string in 16th's
E -14h15p14-15-14-15-14-13-14-----------------------------|
B -----------------------------14h15p14-14-13-14-13-13----|
G -----------------------------------------------------15-|
D --------------------------------------------------------|
A --------------------------------------------------------|
E --------------------------------------------------------|

E ---------------------------------------------|
B -------15-------15---------------------------|
G -17b19----17b19----17-15----15-15-17-15------|
D -------------------------17------------------|
A ----------------------------------------13~--|
E ---------------------------------------------|

E -------------------------------------------------------------------------|
B -------------------------------------------------------11.11.11-13.13.13-|
G -------------------------------------10.10.10-12.12.12-------------------|
D -------------------10.10.10-12.12.12-------------------------------------|
A -10.10.10-13.13.13-------------------------------------------------------|
E -------------------------------------------------------------------------|

E -------10----------------------------------------|
B -13b15-----13b14--13b14r13b14-13-11-13-11----11--|
G ------------------------------------------12-----|
D -------------------------------------------------|
A -------------------------------------------------|
E -------------------------------------------------|

2e gedeelte; 2e gitaar speelt riff B/
2nd part; 2nd guitar plays riff B
E -12---~~----->14---------------12---~~----->17---------------|
B -15b17~~----->17b19-->18b20~---15b17~~----->20b22-->18b20~---|
G -------------------------------------------------------------|
D -------------------------------------------------------------|
A -------------------------------------------------------------|
E -------------------------------------------------------------|

E -12---~~----->14---------------12---~~----->17----------------|
B -15b17~~----->17b19-->18b20~---15b17~~----->20b22-->18b20~--\-|
G --------------------------------------------------------------|
D --------------------------------------------------------------|
A --------------------------------------------------------------|
E --------------------------------------------------------------|

BREAK NA SOLO/BREAK AFTER SOLO

drumroffel/drumfill

RIFF C2 na solo/after solo

als riff C met kleine variaties en 4e maat hetzelfde als de 3e,
dus zonder plectrumstrijk
like riff C with small variations and the 4th bar the same as the 3rd,
so without pickscratch

OUTRO
		
rode tablature: demp alleen de lage E snaar af/
red tabs: mute only the low E string
E ----------------------------------------------------------------|
B ----------------------------------------------------------------|
G ----------------------------------------------------------------|
D ->9------------>7-----------------------------------------------|
A ->7----->9----->5------>7----------------------feedback---------|
E ->7----->7----->5------>5---------------------------------------|


Have fun!

DopeStar

            
            
Suggest correction
Creating personal tab
Creating personal tab
You can edit any tab online and save it as your Personal.

You can edit, replace or remove any tab part or add personal notes – all changes will be seen only by you.

Personal tabs can be accessed anytime from any device, even offline.
Learn more »
Give kudos to tab author, rate the tab!
1 2 3 4 5
comments
print report bad tab
guest
You may want to rate the tab now too:
select rating
Wanna post a correction for this tab? Suggest correction