Oops, an error
Loading. Please wait.

Killerspeed bass

version 1
version 1

Whole song

Interactive

672 views 3 this week
no commentswrite comment
1 2 3 4 5
1 last vote to show rating
add to favorites
×
Save as Personal and add changes to this tab that will be seen only by you. Learn more ›
×
You can save this tab as Personal to edit and correct it or add notes. All changes will be seen only by you. Learn more »
launch autoscroll
font size
0
reset
guitar tuner
edit
Autoscroll
slow
fast
+/-
esc
set tempo
stop
Author
Difficulty
G -gitaarriff/----|----------------|----------------|----------------|
D -guitarriff-----|----------------|----------------|----------------|
A --& break-------|----------------|----------------|----------------|
E -R--------------|-R--------------|-R--------------|-R----------12\-|

G ----------------|----------------|----------------|----------------|
D ----------------|----------------|----------------|----------------|
A ----------------|----------------|----------------|----------------|
E ->0-R-----------|->0->0-R--------|->0-------------|-/12~--------\--|

RIFF A 

G ----------------|---------------|---------------|---------------|
D ----------------|---------------|---------------|---------------|
A -----------0h5h6/7---------0h5h6/7---------0h5h6/7---------0h5h6|
E -0-0-4-0-5------|--0-4-0-5------|--0-4-0-5------|--0-4-0-5------|

opmerking: gitaar speelt een afwijkende partij die er wel op lijkt/
note: guitar plays a different part which looks pretty similiar to this
RIFF B

G ----------------|----------------|
D ----------------|----------------|
A -/7-------------|----------------|
E --0-------------|-/7~------/7\---|

RIFF C

G -----------------|-----------------|----------------|---------------|
D -----------------|-----------------|----------------|---------------|
A -----------------|-----------------|-----------0h5h6/7---------0h5h6|
E ->6--6-6-6-6-6-6-|->5--5-5->3--3-3-|-0-0-4-0-5------|--0-4-0-5------|

G -----------------|-----------------|
D -----------------|-----------------|
A -----------------|-----------------|
E ->6--6-6-6-6-6-6-|->5--5-5->3--3-3-|

RIFF D

G -----------------------------------|--------------------------------|
D -----------------------------------|--------------------------------|
A -----------------------------------|--------------------------------|
E -(/)7--7-7-7-7-7-7-7-7-7-7-7-7-7-7-|-7--7-7-7-7-7-7-7-7-7-7-7-7-7-7-|

BREAK (gitaar speelt riff A2, zie gitaartab/guitar plays riff A2, look at guitartab)

G -gitaarriff/----|----------------|----------------|----------------|
D -guitarriff-----|----------------|----------------|----------------|
A --& break-------|----------------|----------------|----------------|
E -0-R------------|-R--------------|-R--------------|-R----------12\-|

G ----------------|----------------|----------------|----------------|
D ----------------|----------------|----------------|----------------|
A ----------------|----------------|----------------|----------------|
E ->0-R-----------|->0->0-R--------|->0-------------|-/12~----\------|

RIFF E TUSSENSTUK/INTERLUDE 

G ---------------------------------|---------------------------------|
D -----2---------------------------|-----2---------------------------|
A -----------5-----4-----2---2-----|-----------5-----4-----2---2-----|
E -0-0---0-0---3-4---3-4---0---3---|-0-0---0-0---3-4---3-4---0---3---|

G ---------------------------------|---------------------------------|
D -----2---------------------------|-----2---------------------------|
A -----------5-----4-----2---2-----|-----------5-----4-----2---2-----|
E -0-0---0-0---3-4---3-4---0---3---|-0-0---0-0---3-4---3-4---3---3---|

EINDE SONG/END SONG

G -geen drums/no drums------------------------------------|
D --------------------------------------------------------|
A ----------------5h7-5-5---------------------------------|
E -\>0--------------------7p6-3b--3b---0------------->0-R-|

Suggest correction
Creating personal tab
Creating personal tab
You can edit any tab online and save it as your Personal.

You can edit, replace or remove any tab part or add personal notes – all changes will be seen only by you.

Personal tabs can be accessed anytime from any device, even offline.
Learn more »
Give kudos to tab author, rate the tab!
1 2 3 4 5
comments
print report bad tab
guest
You may want to rate the tab now too:
select rating
Wanna post a correction for this tab? Suggest correction