Oops, an error
Loading. Please wait.

Mississippi tab

236 views 1 this week
no commentswrite comment
1 2 3 4 5
2 more votes to show rating
add to favorites
×
Save as Personal and add changes to this tab that will be seen only by you. Learn more ›
×
You can save this tab as Personal to edit and correct it or add notes. All changes will be seen only by you. Learn more »
launch autoscroll
font size
0
reset
how to read this tab
guitar tuner
edit
Autoscroll
slow
fast
+/-
esc
set tempo
stop
Author
Difficulty
7h8	= hammer-on
7p5	= pull-off
8b9	= druk 8e fret op naar 9e/bend 8th fret to 9th
7b	= druk de snaar een klein beetje op/bend the string a little bit
\	= slide omlaag/slide down
x	= percussieslag/percussionstrike
(2)	= wordt af en toe gespeeld/ is played sometimes
^	= opslag/upstroke
R	= rust/rest

cursieve cijfers/ italic numbers = laat doorklinken/let ring 

INTRO (accoustisch/clean tone)
		
rode tablature: speel 14 maal en 
vervang af en toe tweede E5 akkoord door percussieslagen/
red tabs: play 14 times and
replace now and then second E5 chord by percussionstrikes
E ---------------------|---------------|-----------|
B ---------------------|---------------|-----------|
G ---2h3---2h3---2h3p0-|---------------|---------0-|
D -2-----2-----2-------|---------------|---------0-|
A ---------------------|-----2-(2)-----|-2-x-----0-|
E ---------------------|-(x)-0-(0)-3b--|-0-x-3b----|

E ---------------------|-------------------|
B ---------------------|-------------------|
G ---2h3---2h3---2h3p0-|-----------------0-|
D -2-----2-----2-------|-----------------0-|
A ---------------------|-2-x-----2-x-----0-|
E ---------------------|-0-x-3b--0-x-3b----|

RIFF A (vanaf hier met distortion/from here with distortion)

E ---------------------|-----------------------|
B ---------------------|-----------------------|
G ---2h3---2h3---2h3p0-|-----------------------|
D -2-----2-----2-------|-----------------------|
A ---------------------|-2-(2)-----2-(2)-----2-|
E ---------------------|-0-(0)-3b--0-(0)-3b--0-|

E ----------------|-----------------------|
B ----------------|-----------------------|
G ----------------|-----------------------|
D -x-2bp0-7bp0----|-----------------------|
A -------------7--|-2-(2)-----2-(2)-----2-|
E ----------------|-0-(0)-3b--0-(0)-3b--0-|

E ---------------------|-----------------------|
B ---------------------|-----------------------|
G ---2h3---2h3---2h3p0-|-----------------------|
D -2-----2-----2-------|-----------------------|
A ---------------------|-2-(2)-----2-(2)-----2-|
E ---------------------|-0-(0)-3b--0-(0)-3b--0-|

rode tablature: druk langzaam bijna een halve noot op/
red tabs: bend slowly almost an halve note
E ----------------|-----------------------|---------------|
B ----------------|-----------------------|---------------|
G ----------------|-----------------------|---------------|
D -x-2bp0-7bp0----|-----------------------|-0-7bp0-7b8----|
A -------------7--|-2-(2)-----2-(2)-----2-|---------------|
E ----------------|-0-(0)-3b--0-(0)-3b--0-|---------------|

RIFF B COUPLET/VERSE (bas speelt steeds E - G lick/bass keeps playing E - G lick)

(met variaties/with variations)

E -----------|
B -----------|
G ---4---^4--|
D ---2---^2--|
A ---2-------|
E -x---------|

opmerking: demp lichtjes af en sla zacht aan/ 
note: mute a little and strike softly 
RIFF C BRUG/BRIDGE

E ---------------------------------|---------------------------------|
B ---------------------------------|---------------------------------|
G ---------------------------------|---------------------------------|
D -5-5-5-5-5-5-5-5-3-3-3-3-3-3-3-3-|---------------------------------|
A -5-5-5-5-5-5-5-5-3-3-3-3-3-3-3-3-|-2-2-----2-2-----2-2-----2-2-----|
E -3-3-3-3-3-3-3-3-1-1-1-1-1-1-1-1-|-0-0-3b--0-0-3b--0-0-3b--0-0-3b--|

RIFF D REFREIN 1/CHORUS 1 

E ------------------|--------^0-------|----^3------------|-----------------|
B ------------------|--------^0-------|----^3------------|-----------------|
G ------------------|-----------------|------------------|--------^1-------|
D -5---5-----3-3-3--|-2---------------|-5---------3-3-3--|-2------^2-------|
A -5---5-----3-3-3--|-2---------------|-5---------3-3-3--|-2---------------|
E -3---3-----1-1-1--|-0---------------|-3---------1-1-1--|-0---------------|

E -----------------|-----------------|-----------------|----------------|
B -----------------|-----------------|-----------------|----------------|
G -----------------|-----------------|-----------------|----------------|
D -R-5-----R-3-----|-R-5-----R-7-----|-R-5-----R-7-----|-5--5--5---5->5-|
A -R-5-----R-3-----|-R-3-----R-7-----|-R-5-----R-5-----|-5--5--5---5->5-|
E -R-3-----R-1-----|-----------5-----|-R-3-----R-5-----|-3--3--3---3->3-|

RIFF D2 REFREIN 2/CHORUS 2 

E ------------------|--------^0-------|------------------|-----------------|
B ------------------|--------^0-------|------------------|-----------------|
G ------------------|-----------------|------------------|--------^1-------|
D -5---5-----3-3-3--|-2---------------|-5---5-----3-3-3--|-2------^2-------|
A -5---5-----3-3-3--|-2---------------|-5---5-----3-3-3--|-2---------------|
E -3---3-----1-1-1--|-0---------------|-3---3-----1-1-1--|-0---------------|

E -----------------|-----------------|-----------------|
B -----------------|-----------------|-----------------|
G -----------------|-----------------|-----------------|
D -R-5-----R-3-----|-R-5-----R-7-----|-R-5-----R-7-----|
A -R-5-----R-3-----|-R-3-----R-7-----|-R-5-----R-5-----|
E -R-3-----R-1-----|-----------5-----|-R-3-----R-5-----|

opmerking: speel twee keer/ 
note: play two times
EINDE SONG/END OF SONG

E ----------|
B ----------|
G ----------|
D ->5---\-R-|
A ->5---\-R-|
E ->3---\-R-|

Go for it :) 
Suggest correction
Creating personal tab
Creating personal tab
You can edit any tab online and save it as your Personal.

You can edit, replace or remove any tab part or add personal notes – all changes will be seen only by you.

Personal tabs can be accessed anytime from any device, even offline.
Learn more »
Give kudos to tab author, rate the tab!
1 2 3 4 5
comments
print report bad tab
guest
You may want to rate the tab now too:
select rating
Wanna post a correction for this tab? Suggest correction