Oops, an error
Loading. Please wait.

Rocketfuel tab

399 views 1 this week
no commentswrite comment
1 2 3 4 5
2 more votes to show rating
add to favorites
×
Save as Personal and add changes to this tab that will be seen only by you. Learn more ›
×
You can save this tab as Personal to edit and correct it or add notes. All changes will be seen only by you. Learn more »
launch autoscroll
font size
0
reset
how to read this tab
guitar tuner
edit
Autoscroll
slow
fast
+/-
esc
set tempo
stop
Author
Difficulty
explanation signs:

7h8	= hammer-on
7p5	= pull-off
7b	= bend the string a little bit
~	= vibration
	= slide down
/	= slide up
x	= percussionstrike
<7>	= artificial harmonic
>7	= give accent
R	= rest


PRE-INTRO

radiotalk

INTRORIFF

E -------------------------------|
B -------------------------------|
G -------------------------------|
D -------------------------------|
A -------------------------------|
E -3-0-3-5-6--0-3-5-5-6-->0-->0--|

note: last two open E tones are played the last time a little different due to timing

RIFF A

E -------------------------------|
B -------------------------------|
G -------------------------------|
D -------------------------------|
A -------------------------------|
E -0-0--3p0-5p0-3p0-6p0-5p0-3h5--|

note: leave out firts two open E tones the firts time

RIFF B bridge

E -----------------------------------|------------------------------------|
B -----------------------------------|------------------------------------|
G -----------------------------------|------------------------------------|
D -----------------------------------|------0------0------0------0-0------|
A ------0------0------0------0-------|-4h5b---4h5b---4h5b---4h5b-----4h5b-|
E -4h5b---4h5b---4h5b---4h5b---4h5b--|------------------------------------|

note: take 4th position with middlefinger and 5th position with ringfinger
to play it at the easiest way

RIFF C

E -------------------------------|-------------------------------|
B -------------------------------|-------------------------------|
G -------------------------------|-------------------------------|
D -------------------------------|-------------------------------|
A -R-2---------------------------|->5--------------5-------------|
E -R-0---------------------------|->3--x-x-x-x-x-->3--x-x-x-x-x--|

E -------------------------------|-------------------------------|
B -------------------------------|-------------------------------|
G -------------------------------|-------------------------------|
D -------------------------------|-------------------------------|
A -R-2---------------------------|->5--------------5-------------|
E -R-0---------------------------|->3--x-x-x-x-x-->3--x-x-x-x-x--|

E -------------------------------|-------------------------------|
B -------------------------------|-------------------------------|
G -------------------------------|-------------------------------|
D -R-2---2-2-2-2-2-2-2-2-2-2-2-2-|->5--------------5-------------|
A -R-0---------------------------|->3--x-x-x-x-x-->3--x-x-x-x-x--|
E -------------------------------|-------------------------------|

E -------------------------------|-----------------------------|
B -------------------------------|-----------------------------|
G -------------------------------|-----------------------------|
D -------------------------------|-----------------------------|
A -R-2------let ring-------------|->5--------------5-----------|
E -R-0------<5>------------------|->3--x-x-x-x-x-->3--x-x-x-x--|

note 1: play percussiontones at 3rd position en mute lightly

note 2: harmonic in 7th bar is caused by muting lightly the low E at the fifth position 
the little finger after striking the E5 chord

note 3: the chords are played best as upstroke

BREAK (play four times)

E ----------------------------|
B ----------------------------|
G ----------------------------|
D ---------1st 3 times--------|
A -2->2-R---drumfills---------|
E -0->0-R---------------------|

RIFF A2

after break - continue after that with the normal riff A

E ----------------------------------|
B ----------------------------------|
G ----------------------------------|
D ----------------------------------|
A ->2-->2---------------------------|
E ->0-->0--3p0-5p0-3p0-6p0-5p0-3h5--|

RIFF A3 (in key of A)

E -------------------------------|
B -------------------------------|
G -------------------------------|
D -------------------------------|
A -0-0--3p0-5p0-3p0-6p0-5p0-3h5--|
E -------------------------------|

RIFF A4

after 2nd break - continue after that with riff A3

E ----------------------------------|
B ----------------------------------|
G ->2-->2---------------------------|
D ->1-->1---------------------------|
A ->0-->0--3p0-5p0-3p0-6p0-5p0-3h5--|
E ----------------------------------|

RIFF D transition

	     1.3. time

E ---------------------------|
B ---------------------------|
G ---------------------------|
D ---------------------------|
A -7-7-7-6-6-6-5---4---3-3-2-|
E ---------------------------|

	     2.4. time

E ---------------------------|
B ---------------------------|
G ---------------------------|
D ---------------------------|
A -7-7-7-6-6-6-5-5-4---3-3-2-|
E ---------------------------|

note: play as 1/12th

SOLO (with 2nd guitar which plays A5 chords)

E --------0--0--0--0--0--------------------------------------|
B -------/14-14-14-14-14-------------------------------------|
G -------------------------->10------------------------------|
D -2------------------------>11--11-11-11-->10---------------|
A -0----------------------x------0--0--0--->11------0-0------|
E -----------------------------------------------3b-----3b---|

E ----------0--0--0------------------------------------------|
B ---------/14-14-14--14~-14~-14~14~14~-14~-14~-14~14~14-----|
G -----------------------------------------------------------|
D -2---------------------------------------------------------|
A -0----0----------------------------------------------------|
E -----------------------------------------------------------|

RIFF E (linked up with solo)

E ----------------------------------------------|
B ----------------------------------------------|
G ----------------------------------------------|
D ------------------>5b----------->5b-----------|
A ->2--2-2-2-2-2-2-->5b--2-2-2-2-->5b--2-2-2--2-|
E ->0--0-0-0-0-0-0-------0-0-0-0-------0-0-0--0-|

RIFF F transition (rhythm like riff D)

	     1.3.5.7. time

E ---------------------------|
B ---------------------------|
G ---------------------------|
D ---------------------------|
A ---------------------------|
E -5-5-5-4-4-4-3---2---1-1-0-|

	     2.4.6.8. time

E ---------------------------|
B ---------------------------|
G ---------------------------|
D ---------------------------|
A ---------------------------|
E -5-5-5-4-4-4-3-3-2---1-1-0-|

note: play as 1/12th

FINALCHORD

E ----------|
B ----------|
G ----------|
D ->2-R-----|
A ->2-R-----|
E ->0-R-----|

            
            
Suggest correction
Creating personal tab
Creating personal tab
You can edit any tab online and save it as your Personal.

You can edit, replace or remove any tab part or add personal notes – all changes will be seen only by you.

Personal tabs can be accessed anytime from any device, even offline.
Learn more »
Give kudos to tab author, rate the tab!
1 2 3 4 5
comments
print report bad tab
guest
You may want to rate the tab now too:
select rating
Wanna post a correction for this tab? Suggest correction