Oops, an error
Loading. Please wait.

Saliva tab

294 views 3 this week
no commentswrite comment
1 2 3 4 5
2 more votes to show rating
add to favorites
×
Save as Personal and add changes to this tab that will be seen only by you. Learn more ›
×
You can save this tab as Personal to edit and correct it or add notes. All changes will be seen only by you. Learn more »
launch autoscroll
font size
0
reset
how to read this tab
guitar tuner
edit
Autoscroll
slow
fast
+/-
esc
set tempo
stop
Author
Difficulty
8b9	= druk 8e fret op naar 9e/bend 8th fret to 9th
7b8r7	= druk 7e fret op naar 8e en laat weer terugkomen in oude positie/
	  bend 7th fret to 8th and release to old position
7b	= druk de snaar een klein beetje op/bend the string a little bit
~	= vibrato/vibration
\	= slide omlaag/slide down
/	= slide omhoog/slide up
x	= percussieslag/percussionstrike
0	= afdempen/mute strings
0	= licht afdempen/mute strings slightly
(2)	= wordt af en toe gespeeld/ is played sometimes
>7	= accent geven/give accent
R	= rust/rest

cursieve cijfers/ italic numbers = laat doorklinken/let ring 

INTRO

drums en geluiden/drums en noises

RIFF A (bas in A/bass in A) 
(met kleine variaties/with slight variations)

rode tablature: korte noten/
red tabs: short notes

gitaar 1/guitar 1:
E ---------------------------|--------------------------------------------------|
B ---------------------------|--------------------------------------------------|
G ---------------------5b-R--|-7(/)8b--7(b)--5(b)-------------------------------|
D ---------------5--7--------|--------------------7(b)--6(b)--5(b)--------------|
A -0--3--5-6--7--------------|--------------------------------------7b--6b-R--0-|
E ---------------------------|--------------------------------------------------|

gitaar 2/guitar 2:
E ---------------------------|----------------------------------|
B ---------------------5b-R--|-----8--7-------------------------|
G ---------------------5b-R--|-7(/)8--7--5----------------------|
D ---------------5--7--------|-------------7--6--5--------------|
A -0--3--5-6--7--------------|------------(7)-------7b--6b-R--0-|
E ---------------------------|----------------------------------|

RIFF B (bas/bass: C - D#)

gitaar 1/guitar 1:
E ----------------------|----------------------|
B -7-------7-----7------|-7-------7-----7------|
G ---5~------5~----5~---|---5~------5~----5~---|
D ----------------------|----------------------|
A ----------------------|----------------------|
E ----------------------|----------------------|

E --------------------------|-------------------------|
B -/10-------10-----10------|-10-------10-----10------|
G -----8~-------8~-----8~---|----8~-------8~-----8~---|
D --------------------------|-------------------------|
A --------------------------|-------------------------|
E --------------------------|-------------------------|

gitaar 2/guitar 2:
E -------------------------|--------------------------|
B -7-(5)----7-(5)--7-(5)---|-7-(5)----7-(5)--7-(5)----|
G -5--5-----5--5---5--5----|-5--5-----5--5---5--5--7/-|
D -------------------------|--------------------------|
A -------------------------|--------------------------|
E -------------------------|--------------------------|

E -----------------------------|-----------------------------|
B -10-8b----10-(8b)--10-(8b)---|-10-8b----10-(8b)--10-(8b)---|
G -8--8b----8---8b---8---8b----|-8--8b----8---8b---8---8b----|
D -----------------------------|-----------------------------|
A -----------------------------|-----------------------------|
E -----------------------------|-----------------------------|

RIFF C (beide gitaren/both guitars)

rode tablature: speel pecussietonen vanaf begin van de hals op lage E-snaar 
en pak deze steeds hoger/ 
red tabs: play percussiontones starting at the begin of the neck on the low E-string
and play them higher and higher

E -------------------------------------------------------------------------|
B -------------------------------------------------------------------------|
G -------------------------------------------------------------------------|
D -------------------------------------------------------------------------|
A -------------------------------------------------------------------------|
E -0-0-0-0-0-0-0-0-0-0-0-0-0-0-0-0-0-0-0-0-0-0-0-0-0-0-0-0-0-0-0-0-0-0-0-0-|
E -------------------------------------------------------------------------|
B -------------------------------------------------------------------------|
G -------------------------------------------------------------------------|
D -------------------------------------------------------------------------|
A ---------------------------------------7-7-7-7-7-7-7---------------------|
E -0-0-0-0-0-0-0-0-0-0-0-0-0-0-0-0-0-0-0-0-0-0-0-0-0-0-0-x-x-x-x-x-x-x-x-x-|

opmerking: demp de lage E steeds minder af/ 
note: mute the low E less again and again
RIFF D (tussen twee drumbreaks/between two drumbreaks)
(bas volgt gitaar/bass follows guitar)
gitaar 1/guitar 1:
E -////12-12-12-12-12-12-12-12-12-12-12-12-\\\\-0-0-0-0-0-0-0-0-0-0-0-0-|
B ----------------------------------------------------------------------|
G ----------------------------------------------------------------------|
D ----------------------------------------------------------------------|
A ----------------------------------------------------------------------|
E ----------------------------------------------------------------------|

gitaar 2/guitar 2:
E ----------------------------------------------------------------------|
B ----------------------------------------------------------------------|
G ----------------------------------------------------------------------|
D ----------------------------------------------------------------------|
A ----------------------------------------------------------------------|
E -////12-12-12-12-12-12-12-12-12-12-12-12-\\\\-0-0-0-0-0-0-0-0-0-0-0-0-|

opmerking: sla alle E-posities heel vaak aan en sla de tonen gedurende de slide ook aan/ 
note: srike all E-postitions many times and strike the tones during the slide too

SOLO (1 gitaar/1 guitar)
(bas in A/bass in A)

rode tablature: korte noten/
red tabs: short notes

blauwe tablature: bijna een halve noot opdrukken/
blue tabs: bend almost an half note
E ----------------------------|---------------------------------|
B ----------------------------|-15b16--15--13-------15--13------|
G ----------------------------|---------------14-R----------14b-|
D --------------------7--10-x-|---------------------------------|
A --------5-6--7--10----------|---------------------------------|
E -5~--8----------------------|---------------------------------|

E -15-R-17b--15----15-17-----------|-12b--------12b--r---12--\-|
B -0------------17-------15b-------|-15b17--r--r16---r--r15--\-|
G ----------------------------14---|---------------------------|
D -------------------------------x-|---------------------------|
A ---------------------------------|---------------------------|
E ---------------------------------|---------------------------|

groene tablature: meerdere malen aanslaan en ondertussen gebogen tonen 
langzaam laten zakken/ 
green tabs: strike a greater time and meanwhile, let lose the bended tones

RIFF B2 (speel alles met een accent/play everything with an accent)
(bas/bass: C - D#)

gitaar 1/guitar 1:
E ----------------------|----------------------|
B ----------------------|----------------------|
G ----------------------|----------------------|
D -10b-----10b---10b----|-10b-----10b---10b----|
A -10b-----10b---10b----|-10b-----10b---10b----|
E -8b------8b----8b-----|-8b------8b----8b-----|

E --11-11-----11-11---11-11----|-11-11-----11-11---11-11----|
B --11-11-----11-11---11-11----|-11-11-----11-11---11-11----|
G --11-11-----12-12---12-12----|-12-12-----12-12---12-12----|
D --13-13-----13-13---13-13----|-13-13-----13-13---13-13----|
A --13-13-----13-13---13-13----|-13-13-----13-13---13-13----|
E -/11-11-----11-11---11-11----|-11-11-----11-11---11-11----|

gitaar 2/guitar 2:
E ----------------------------|----------------------------|
B ----------------------------|----------------------------|
G ----------------------------|----------------------------|
D -10-10-----10-10---10-10----|-10-10-----10-10---10-10----|
A -10-10-----10-10---10-10----|-10-10-----10-10---10-10----|
E -8--8------8--8----8--8-----|-8--8------8--8----8--8-----|

E -----------------------------|----------------------------|
B -----------------------------|----------------------------|
G -----------------------------|----------------------------|
D --13-13-----13-13---13-13----|-13-13-----13-13---13-13----|
A --13-13-----13-13---13-13----|-13-13-----13-13---13-13----|
E -/11-11-----11-11---11-11----|-11-11-----11-11---11-11----|

EINDE/END (beide gitaren/both guitars)

E -------------------------------------------------|
B -------------------------------------------------|
G -------------------------------------------------|
D -------------------------------------------------|
A -0-0-0-0-0-0-0-0-0-0-0-0-0-0-0-0-0-0-0-0-0-0-0-0-|
E -------------------------------------------------|

E -------------------------------------------------|---------|
B -------------------------------------------------|---------|
G -------------------------------------------------|---------|
D -------------------------------------------------|->7-R----|
A -0-0-0-0-0-0-0-0-0-0-0-0-0-0-0-0-0-0-0-0-0-0-0-0-|->0-R----|
E -------------------------------------------------|---------|


            
            
Suggest correction
Creating personal tab
Creating personal tab
You can edit any tab online and save it as your Personal.

You can edit, replace or remove any tab part or add personal notes – all changes will be seen only by you.

Personal tabs can be accessed anytime from any device, even offline.
Learn more »
Give kudos to tab author, rate the tab!
1 2 3 4 5
comments
print report bad tab
guest
You may want to rate the tab now too:
select rating
Wanna post a correction for this tab? Suggest correction