Oops, an error
Loading. Please wait.

Short Road To Nowhere tab

202 views 3 this week
no commentswrite comment
1 2 3 4 5
2 more votes to show rating
add to favorites
×
Save as Personal and add changes to this tab that will be seen only by you. Learn more ›
×
You can save this tab as Personal to edit and correct it or add notes. All changes will be seen only by you. Learn more »
launch autoscroll
font size
0
reset
how to read this tab
guitar tuner
edit
Autoscroll
slow
fast
+/-
esc
set tempo
stop
Author
Difficulty
7p5	= pull-off
8b9	= druk 8e fret op naar 9e/bend 8th fret to 9th
7b8r7	= druk 7e fret op naar 8e en laat weer terugkomen in oude positie/
 	   bend 7th fret to 8th and release to old position
7b	= druk de snaar een klein beetje op/bend the string a little bit
~	= vibrato/vibration
~~	= veel vibrato/much vibration
\	= slide omlaag/slide down
/	= slide omhoog/slide up
x	= percussieslag/percussionstrike
0	= afdempen/mute strings
<7>	= kunstmatige flagolet/artificial harmonic
>7	= accent geven/give accent
*	= onduidelijk/unclear
R	= rust/rest

cursieve cijfers/ italic numbers = laat doorklinken/let ring 

RIFF A COUPLET/VERSE

gitaar/guitar
E ---------------|
B ---------------|
G ---------------|
D --------2-2-2--|
A -2-2-2--0-0-0--|
E -0-0-0---------|

bas/bass
G ---------------|
D ---------------|
A ---------------|
E -0-0-3-5--4-3--|

RIFF B REFREIN/CHORUS

rode tablature: een 2e gitaar speelt hier alleen x24xxx/ 
red tabs: a 2nd guitar plays here just x24xxx
     
E --------------|----------------|--------------|----------------|
B --------------|----------------|--------------|----------------|
G --------------|----------------|--------------|----------------|
D --------------|-7--7-7-7-7-7-7-|-4--4--4-4-x--|----------------|
A -5--5--5-5-x--|-5--5-5-5-5-5-5-|-2--2--2-2-x--|-4--4-4-4-4-4-4-|
E -3--3--3-3-x--|----------------|-2--2--2-2-x--|-2--2-2-2-2-2-2-|
E --------------|----------------|-----------------|-----------------|
B --------------|----------------|-----------------|-----------------|
G --------------|----------------|-----------------|-----------------|
D --------------|-7--7-7-7-7-7-7-|-----------------|-----------------|
A -5--5--5-5-x--|-5--5-5-5-5-5-5-|-4-4-4-2-4-4-4-2-|-4-4-4-2-4-4-4-4-|
E -3--3--3-3-x--|----------------|-2-2-2-0-2-2-2-0-|-2-2-2-0-2-2-2-2-|

RIFF B2 variatie 7e en 8e maat/variation 7th and 8th bar 

E -----------------------------------|-------------------------------|
B -----------------------------------|------------------------drum---|
G -----------------------------------|------------------------break--|
D -----------------------------------|-------------------------------|
A -7-7-7-7-7-7-7-7-7-7-7-7-7-7-7-7-\-|-----7-7-7-7-7-7-7-7-7---R-----|
E -5-5-5-5-5-5-5-5-5-5-5-5-5-5-5-5-\-|-5-5-5-5-5-5-5-5-5-5-5-\-R-----|

SOLO 1 (over riff A/over riff A)

rode tablature: speel met lichte vibrato/  
red tabs: play with light vibration
E -break----|----------------------------------------------------------|
B ----------|------------------------------>8--------------------------|
G ----------|->7-9-9-9--9-9->9--9-9-9--9-9----9-9-9--9-9->9--9-9--9-9--|
D -*7*------|----------------------------------------------------------|
A -----*7*\-|----------------------------------------------------------|
E ----------|----------------------------------------------------------|

blauwe tablature: druk minder dan een halve noot op en laat weer terugkomen/ 
blue tabs: bend less then an half note and release
E ---------------------------------------------------------------|
B -10b11r10p8----------10b11r10p8----------10b11r10p8-10b11r10p8-|
G ------------9-9--9-9------------9-9--9-9-----------------------|
D ---------------------------------------------------------------|
A ---------------------------------------------------------------|
E ---------------------------------------------------------------|

E --------------------------------------|
B -10b11r10p8-10b11r10p8-10b11r10p8-10\-|
G --------------------------------------|
D --------------------------------------|
A --------------------------------------|
E --------------------------------------|

bas in B/bass in B:

E ---7-7---7-7---7-7---7-7--------------|
B -6/7---6/7---6/7---6/7---6-7-7-7------|
G -------------------------------9b10---|
D --------------------------------------|
A --------------------------------------|
E --------------------------------------|

SOLO 2 

eerste gedeelte (over riff A door 2e gitaar) is vrijwel hetzelfde als solo 1 
(maar laatste maat wordt dan niet gespeeld);
first part (over riff A by 2nd guitar) is almost the same as solo 1
(but the last bar isn't played)

en dan volgt over riff B (door 2e gitaar) de rest van de solo;
deze is vrijwel hetzelfde gedubbeld door nog een 3e gitaar/
and then over riff B (by 2nd guitar) appears the rest of the solo;
this one is almost the same doubled by yet a 3rd guitar
E ------------------------------------------------|
B -----------------------------4b5r4p2------------|
G -----------------------------4b5r4p2-4----------|
D ----------------------------------------4~~--\/-|
A ---------2-3-/5---5-5-5\--2---------------------|
E -3---3-3------------------2---------------------|

rode tablature: lichte kunstmatige flogolet/  
red tabs: light artificial harmonic
E -----------------------------------------------------------------------------|
B -----------------------------------------------------------------------------|
G ---------------------><4b>-><4b>-><4b>-><4b>-><4b>-><4b>-><4b>-><4b>-><4b>-\-|
D -----3-2------3-2------------------------------------------------------------|
A ---------5--5-----5----------------------------------------------------------|
E -/3--------------------------------------------------------------------------|

E --------------------------------------------------------------|
B -----------------------------------4p2------------------2b----|
G -----------------------------------4p2-2----------------2b----|
D --------------------3---><3>\---4--------4--<2>~------4----4--|
A -----------2-3--5-5---5---------2-----------------------------|
E -3---3-3-3----------------------------------------2-R---------|

E -----------------------------|
B -----------------------------|
G -----------------------------|
D --------------------3---3b\--|
A -----2--2--3-R-5--5---5------|
E -3---------------------------|

E ---5-5---5-5---5-5---5-5---5-5-\---5-5---5-5---5---------|
B -4/5---4/5---4/5---4/5---4/5---\-4/5---4/5---4/5-5~~-----|
G ---------------------------------------------------------|
D ---------------------------------------------------------|
A ---------------------------------------------------------|
E ---------------------------------------------------------|

BREAK (na solo 2/after solo 2)

drumbreak; bas speelt ongeveer als riff A;
gitaar valt aan het eind in met een plectrumstrijk over snaar A en D/
drumbreak; bass plays almost the same a riff A;
guitar enters at the end with pickscratch down over string A and D

EINDE SONG/END OF SONG (na laatste keer riff B/after last time riff B)
E -----------------|-----------------|-----------------|-----------------|
B -----------------|-----------------|-----------------|-----------------|
G -----------------|-----------------|-----------------|-----------------|
D -----------------|-----------------|-----------------|-----------------|
A -4-4-4-2-4-4-4-2-|-4-4-4-2-4-4-4-4-|-4-4-4-2-4-4-4-2-|-4-4-4-2-4-4-4-4-|
E -2-2-2-0-2-2-2-0-|-2-2-2-0-2-2-2-2-|-2-2-2-0-2-2-2-0-|-2-2-2-0-2-2-2-2-|

E -----------------|-----------------|-----------------|-----------------|
B -----------------|-----------------|-----------------|-----------------|
G -----------------|-----------------|-----------------|-----------------|
D -----------------|-----------------|->4------>4------|->4->4\--R-------|
A -4-4-4-2-4-4-4-2-|-4-4-4-2-4-4-4-4-|->2------>2------|->2->2\--R-------|
E -2-2-2-0-2-2-2-0-|-2-2-2-0-2-2-2-2-|-----------------|-----------------|


            
            
Suggest correction
Creating personal tab
Creating personal tab
You can edit any tab online and save it as your Personal.

You can edit, replace or remove any tab part or add personal notes – all changes will be seen only by you.

Personal tabs can be accessed anytime from any device, even offline.
Learn more »
Give kudos to tab author, rate the tab!
1 2 3 4 5
comments
print report bad tab
guest
You may want to rate the tab now too:
select rating
Wanna post a correction for this tab? Suggest correction