Oops, an error
Loading. Please wait.

Twist Of Fate tab

182 views 1 this week
no commentswrite comment
1 2 3 4 5
2 more votes to show rating
add to favorites
×
Save as Personal and add changes to this tab that will be seen only by you. Learn more ›
×
You can save this tab as Personal to edit and correct it or add notes. All changes will be seen only by you. Learn more »
launch autoscroll
font size
0
reset
how to read this tab
guitar tuner
edit
Autoscroll
slow
fast
+/-
esc
set tempo
stop
Author
Difficulty
7h8	= hammer-on
7p5	= pull-off
8b9	= druk 8e fret op naar 9e/bend 8th fret to 9th
7b8r7	= druk 7e fret op naar 8e en laat weer terugkomen in oude positie/
 	   bend 7th fret to 8th and release to old position
7b	= druk de snaar een klein beetje op/bend the string a little bit
~	= vibrato/vibration
~~	= veel vibrato/much vibration
\	= slide omlaag/slide down
/	= slide omhoog/slide up
x	= percussieslag/percussionstrike
0	= afdempen/mute strings
0	= licht afdempen/mute strings slightly
<7>	= kunstmatige flagolet/artificial harmonic
>7	= accent geven/give accent
R	= rust/rest

cursieve cijfers/ italic numbers = laat doorklinken/let ring 

RIFF A COUPLET/VERSE
E ----------------|----------------|----------------|----------------|
B ----------------|----------------|----------------|----------------|
G ----------------|----------------|----------------|----------------|
D ---------->3----|---------->3----|---------->3----|-------->5------|
A -5-5-5-5-->1----|-5-5-5-5-->1----|-5-5-5-5-->1----|->3----->3--3-3-|
E -3-3-3-3--------|-3-3-3-3--------|-3-3-3-3--------|->1---x---------|

RIFF B REFREIN/CHORUS (met variaties/with variations)

rode tablature: lichte flagolet; druk iets op en laat halverwege weer terugkomen/
red tabs: light artificial harmonic; bend just a little and release half-way
E -----------------------------------------|
B -----------------------------------------|
G -----------------------------------------|
D -5-5-5-5-5-5-5-5-------------------------|
A -3-3-3-3-3-3-3-3-<3b-3b-3b-3b-r3-r3-r3>--|
E -----------------------------------------|

E ---------------------------------|
B -(bas/bass: F - G)---------------|
G ---------------------------------|
D ---------------------------------|
A -5-5-5-5-5-5-5-5-5-5-5-5-5-5-5-5-|
E -3-3-3-3-3-3-3-3-3-3-3-3-3-3-3-3-|

E -----------------------------------------|
B -----------------------------------------|
G -----------------------------------------|
D -5-5-5-5-5-5-5-5-------------------------|
A -3-3-3-3-3-3-3-3-<3b-3b-3b-3b-r3-r3-r3>--|
E -----------------------------------------|

E -----------------|-----------------|-----------------|----------------|
B -----------------|-----------------|-----------------|----------------|
G -----------------|-----------------|-----------------|----------------|
D ->7->6->5--5-4-3-|->7->6->5--5-4-3-|->7->6->5--5-4-3-|-<5-R--->5->5-R-|
A ->5->4->3--5-4-3-|->5->4->3--5-4-3-|->5->4->3--5-4-3-|-<5-R--->5->5-R-|
E -----------------|-----------------|-----------------|-<3-R--->3->3-R-|

opmerking: laatste maat weglaten voordat outro (later in song) wordt gespeeld/ 
note: leave out last bar before outro (later on in song) is played

SOLO (bas in A/bass in A)
rode tablature: lichte flagolet; speel met accent/
red tabs: light artificial harmonic; play with accent
E --------------/5--------------|---------------------------------------------|
B -8b10~~----------8-5----------|-8-5-----------------------------------------|
G ---------------------7-5~~----|-----7-7-5~----------------------------------|
D ------------------------------|-------------5--<7>--<5>---------------------|
A ------------------------------|--------------------------<7>--<6>--<5>------|
E ------------------------------|-----------------------------------------<8>-|

E ----------------------------------------------|
B ----------------------------------------------|
G ----------------------------------------------|
D ----->11b----->12b----->13b----->14b----->15b-|
A -0-0------0-0------0-0------0-0------0-0------|
E ----------------------------------------------|

E --------19-19------>12---->12---->12---->12---->12--|
B -15b17--------r16-->15b17->15b17->15b17->15b17->15\-|
G ----------------------------------------------------|
D ----------------------------------------------------|
A ----------------------------------------------------|
E ----------------------------------------------------|

opmerking gekleurde tablature: het gemakkelijkste is om de laagste tonen 
met je middelvinger te pakken en de hoogste met je pink/ 
note coloured tabs: the easiest way is to play the lowest tones
with your middle finger and the highest with your little finger
OUTRO

E --------------------------------------------------------------------|
B ------------------------------------------------------3-3-3-3b-r-R--|
G ------------------------------------------------------3-3-3-3b-r-R--|
D -5-5-5-5-5-5-5-5-5--5-5-5-5-5-5-5-5-5-5-5-5-5-5-5--5----------------|
A -5-5-5-5-5-5-5-5-5--5-5-5-5-5-5-5-5-5-5-5-5-5-5-5--5----------------|
E -3-3-3-3-3-3-3-3----3-3-3-3-3-3-3-3-3-3-3-3-3-3-3--3----------------|

E --------------------------------------------------------------|
B -------------------------------------------------5b-R-5-b--R--|
G -------------------------------------------------5b-R-5-b--R--|
D ---5--5-5-5-5-5-5-5-5--5-5-5-5-5-5-5--5-5-5-5-5---------------|
A ---5--5-5-5-5-5-5-5-5--5-5-5-5-5-5-5--5-5-5-5-5---------------|
E -x------3-3-3-3-3-3----3-3-3-3-3-3----3-3-3-3-3---------------|

rode tablature: lichte flagolet/
red tabs: light artificial harmonic
E -------------------------------------------------------------------|
B -------------------------------------------------------------------|
G -------3b-------------3b-------------------3b-------------3b-------|
D -0h3b-----5~----0h3b-----<5~>--------0h3b-----5~----0h3b-----<5~>--|
A --------------------------------0-0--------------------------------|
E -------------------------------------------------------------------|

E --------------------------------------------------------------------------|
B -----------------------------------------------------------3-3-3----------|
G -----------------------------------------------------------3-3-3-3-3-3bp0-|
D ---3-3---5-5-5-5-5-5-5-5--5-5-5-5-5-5-5----5--5-5-5-5-5-5--------3-3-3bp0-|
A -5-3-3-5-5-5-5-5-5-5-5-5--5-5-5-5-5-5-5----5--5-5-5-5-5-5-----------------|
E -3-3-3-3-3-3-3-3-3-3------3-3-3-3-3-3---33-3--3-3-3-3-3-3-----------------|

E -------------------------------------------------------------------------------|
B ----------3~~------------------------------------------------------------------|
G ---<5b7>-------x-3~------------------------------------------------------------|
D -\-------------------------5~~--------3~~------------------------------/noise--|
A ------------------------------------5--------x-3b-r-b-r-b-p1b------------------|
E ----------------------------------------------------------------3~~------------|

E -----------------------|
B -----------------------|
G -----------------------|
D 5-5-5------------------|
A 5-5-5-etc. fade-out----|
E 3-3-3------------------|

Suggest correction
Creating personal tab
Creating personal tab
You can edit any tab online and save it as your Personal.

You can edit, replace or remove any tab part or add personal notes – all changes will be seen only by you.

Personal tabs can be accessed anytime from any device, even offline.
Learn more »
Give kudos to tab author, rate the tab!
1 2 3 4 5
comments
print report bad tab
guest
You may want to rate the tab now too:
select rating
Wanna post a correction for this tab? Suggest correction