Oops, an error
Loading. Please wait.

Il Buffone Di Corte chords

73 views 1 this week
no commentswrite comment
1 2 3 4 5
3 more votes to show rating
add to favorites
×
Save as Personal and add changes to this tab that will be seen only by you. Learn more ›
×
You can save this tab as Personal to edit and correct it or add notes. All changes will be seen only by you. Learn more »
launch autoscroll
font size
0
reset
transpose
0
reset
display chords
guitar tuner
edit
Autoscroll
slow
fast
+/-
esc
set tempo
stop
Author
Difficulty
Strumming
There is no strumming pattern for this song yet. and get +5 IQ
[Intro]
(accordi distorti)
   D                            F             C  
e|----------------------------------------------------------|
B|------6-8--6---6-------------------6-8--6---6-------------|
G|-7--9--------9---9-7-9--5-----7--9--------9---9-5-7~------| (x3)
D|----------------------------------------------------------|
A|----------------------------------------------------------|
E|----------------------------------------------------------|

   D                            F             C     D
e|----------------------------------------------------------|
B|------6-8--6---6-------------------6-8--6---6-------------|
G|-7--9--------9---9-7-9--5-----7--9--------9---9-5-7~------|
D|----------------------------------------------------------|
A|----------------------------------------------------------|
E|----------------------------------------------------------|
 
(accordi ska)
   Dm                           F             C  
e|-----------------------------------------------------------------|
B|------6-8--6---6-------------------6-8--6---6--------------------|
G|-7--9--------9---9-7-9--5-----7--9--------9---9-5-7~-------------|x2
D|-----------------------------------------------------------------|
A|-----------------------------------------------------------------|
E|-----------------------------------------------------------------|
 
[Verse 1]
Dm
Voglio sposare la più bella del reame
F                        C
non la puoi conquistare, sei solo un giullare
Dm
voglio la mano della figlia del sovrano
F                         C
stasera c'è il banchetto, devi essere perfetto
Dm
faccio i bagagli palline e sonagli
F                   C
non ti dimenticare, cappello da giullare
Dm
sul mio cavallo raggiungo il castello
F                   C
lasciatemi passare, vi farò divertire
 
[Pre-Chorus]
Bb                         C
fino a quando non ti avrò, io non mi fermerò
 
[Chorus]
D                 Bb
salta e diverti i banchetti sono aperti
F                       C
non puoi fermare questa voglia di ballare
D                Bb
fai divertire la folla del sovrano
F                   C
solo cosi le potrai chiedere la mano
 
    Dm         F                 Gm                  Bb
e|---------------------------------------------------------------10~-|
B|------------------------------------------------------10-11-13-----|
G|--7-5/7-7--5/10-10--5/10-10--5/12-12--5/12-12---12-12--------------|
D|-------------------------------------------------------------------|
A|-------------------------------------------------------------------|
E|-------------------------------------------------------------------|
 
[Verse 2]
Dm
la prima prova è un pò pericolosa
F                    C
devi sembrare una persona spiritosa
Dm
attento amico stai rischiando grosso
F                     C
se non fai colpo tu finisci dentro al fosso
Dm
seconda prova quella decisiva
F                  C
o sali sulla nave, o te ne torni a riva
Dm
il re sorride adesso glielo chiedo
F                        C
c'è un piccolo problema, sua figlia è andata a roma
 
[Pre-Chorus]
Bb                         C
fino a quando non ti avrò, io non mi fermerò
 
[Chorus]
D                 Bb
salta e diverti i banchetti sono aperti
F                       C
non puoi fermare questa voglia di ballare
D                Bb
fai divertire la folla del sovrano
F                   C
solo cosi le potrai chiedere la mano
 
D    Bb    F    C (x2) 
D
  
[Solo]
(chitarra classica)
e|----------------------------------------------------------|
B|-6--8-10-11--10-8-10-8-6-8-5----6--8-10-11--10-8-10-8-5-6-|
G|-7--9-10-12--10-9-10-9-7-9-5----7--9-10-12--10-9-10-9-5-7-|
D|----------------------------------------------------------|
A|----------------------------------------------------------|
E|----------------------------------------------------------|
 
                                                         [C][C]
e|----------------------------------------------------------|
B|-6--8-10-11--10-8-10-8-6-8-5----6--8-10-11--10-8-10-8-5-6-|
G|-7--9-10-12--10-9-10-9-7-9-5----7--9-10-12--10-9-10-9-5-7-|
D|----------------------------------------------------------|
A|----------------------------------------------------------|
E|----------------------------------------------------------|
 
(chitarra distorta)
   D                            F             C     C  C
e|----------------------------------------------------------|
B|------6-8--6---6-------------------6-8--6---6-------------|
G|-7--9--------9---9-7-9--5-----7--9--------9---9-5-7~------| (x2)
D|----------------------------------------------------------|
A|----------------------------------------------------------|
E|----------------------------------------------------------|
 
(due chitarre)
   D                               F              C 
e|------------------------------------------------------------|
B|------6--8---6---6---------------------6-8--6---6-----------|
G|-7--9----------9---9--7--9--5-----7--9--------9---9--5--7~--| (x2)
D|------------------------------------------------------------|
A|------------------------------------------------------------|
E|------------------------------------------------------------|
 |                                                            |
e|------------------------------------------------------------|
B|------10-11--10--10-------------------10-11-10--10----------|
G|-10-12---------12--12-10-12-9----10-12--------12--12-9-10~--| (x2)
D|------------------------------------------------------------|
A|------------------------------------------------------------|
E|------------------------------------------------------------|
  
[Outro]
D         Bb    C    D



************************************

| ~  Vibrato
| /  Slide up 

************************************

            
            
Suggest correction
Creating personal tab
Creating personal tab
You can edit any tab online and save it as your Personal.

You can edit, replace or remove any tab part or add personal notes – all changes will be seen only by you.

Personal tabs can be accessed anytime from any device, even offline.
Learn more »
Give kudos to tab author, rate the tab!
1 2 3 4 5
comments
print report bad tab
guest
You may want to rate the tab now too:
select rating
Wanna post a correction for this tab? Suggest correction