Oops, an error
Loading. Please wait.

Hamburg Acoustic tab

118 views 6 this week
no commentswrite comment
1 2 3 4 5
2 more votes to show rating
add to favorites
×
Save as Personal and add changes to this tab that will be seen only by you. Learn more ›
×
You can save this tab as Personal to edit and correct it or add notes. All changes will be seen only by you. Learn more »
launch autoscroll
font size
0
reset
how to read this tab
guitar tuner
edit
Autoscroll
slow
fast
+/-
esc
set tempo
stop
Author
I found the acoustic video at youtube and tried to extract it, so don't hesitate to leave your comment!
Use your capo at 3 (like in the video!) or 4. All relative to capo


[Intro]

e|---------------------------------------------------------------------------|
B|----0----0-----0----0-------0----0-----0-----------------------------------|
G|---7-7--7-7---7-7--7-7-----7-7--7-7---7-7----7---7-------------------------|
D|--5----5-----5----5-------4----4-----4----4h5-4h5-------------------------|
A|---------------------------------------------------------------------------|
E|---------------------------------------------------------------------------|

e|----------------------------------------3----------------------------------|
B|----0----0-----0----0-------0----3------3----------------------------------|
G|---4-4--4-4---0-0--0-0-----0-0--0-0-----0----------------------------------|
D|--2----2-----4----5---------------------0----------------------------------|
A|--------------------------3----3--------3----------------------------------|
E|---------------------------------------------------------------------------|


[Verse]

e|---------------------------------------------------------------------------|
B|----0----0-----0----0-------0----0-----0----0------------------------------|
G|---7-7--7-7---7-7--7-7-----7-7--7-7---7-7--7-7-----------------------------|
D|--5----5-----5----5-------4----4-----4----4--------------------------------|
A|---------------------------------------------------------------------------|
E|---------------------------------------------------------------------------|

e|---------------------------------------------------------------------------|
B|----0----0-----0------------3----3-----3----3------------------------------|
G|---4-4--4-4---4-4--4-4-----0-0--0-0---0-0--0-0-----------------------------|
D|--2----2-----2----2-0------------------------------------------------------|
A|--------------------------3----3-----3----3--------------------------------|
E|---------------------------------------------------------------------------|


[Pre-Chorus]

D
Und alles was mich heut an diese Zeit erinnert
C
Ist ein Bild von dir und mir aus meinem Kinderzimmer


[Chorus]

        Em                                         C
Du bist weg weit fort, weit an einem anderen Ort in Hamburg. 
        Em                                         C
Du bist weg weit fort, weit an einem anderen Ort in Hamburg
        Em                                         C
Du bist weg weit fort, weit an einem anderen Ort in Hamburg
        Em                                         C
Du bist weg weit fort, weit an einem anderen Ort in Hamburg
           D                        C
Wir liefen Hand in Hand, als wir uns beide trafen,
         A                    C 
zwischen Fischgestank, dort am Hamburger Hafen
Hey!


He plays sth like this:
e|--0-0-0-0---0-0-0-0--------------|
B|--0-0-3-0---1-1-3-1--------------|
G|--0-0-0-0---0-0-0-0--------------| 3x
D|--2-2-2-2---1-1-1-1--------------|
A|--2-2-2-2---2-2-2-2--------------|
E|---------------------------------|

e|--0-0-0-0---0-0-0-3--------------|
B|--0-0-3-0---1-1-1-3--------------|
G|--0-0-0-0---0-0-0-0--------------| 1x
D|--2-2-2-2---1-1-1-1--------------|
A|--2-2-2-2---2-2-2-2--------------|
E|---------------------------------|

and then :

e|--5------8------|      |--0------0---|
B|--5------8------|      |--5------8---|
G|--0------0------|  OR  |--0------0---| 
D|--0------0------|      |--0------0---|
A|--4------7------|      |--4------7---|
E|--5------8------|      |--5------8---|



************************************

| h  Hammer-on 

************************************
Suggest correction
Creating personal tab
Creating personal tab
You can edit any tab online and save it as your Personal.

You can edit, replace or remove any tab part or add personal notes – all changes will be seen only by you.

Personal tabs can be accessed anytime from any device, even offline.
Learn more »
Give kudos to tab author, rate the tab!
1 2 3 4 5
comments
print report bad tab
guest
You may want to rate the tab now too:
select rating
Wanna post a correction for this tab? Suggest correction