Oops, an error
Loading. Please wait.

Going Where The Tea-Trees Are bass

855 views 1 this week
1 commentread comment
1 2 3 4 5
3 more votes to show rating
add to favorites
×
Save as Personal and add changes to this tab that will be seen only by you. Learn more ›
×
You can save this tab as Personal to edit and correct it or add notes. All changes will be seen only by you. Learn more »
launch autoscroll
font size
0
reset
guitar tuner
edit
Autoscroll
slow
fast
+/-
esc
set tempo
stop
Author
Difficulty
Listen to the song for the rythm, the verse are all pretty similar with a basic 
as in verse 1, next few notes are included but ryhtm's identical. Sound has to be smooth so play 
with the finger directly on the fret!

Verse 1 (0:08)

G:--------------------------------------------------------|
D:------------------2-3-------------------------2-3-------|
A:-------3-2----0-3----------3------3-2--220-3---------3--|
E:-1---------------------------1--------------------------|

G:-----------------------------------------|
D:--------------------------2-3------------|
A:-------3-2---2-2-222--0-3----------3-----|
E:-1-----------------------------------1---|


Chorus 1 (0:43)

G:-----------------------------------------|
D:-----------------------------------------|
A:-----3-3-5----3--------------------------|
E:-1-1-------------6---6-656-7----7-5------|

G:--------------------------------------------------|
D:-----------------------------------------5--7-----|
A:-2-3-5----3--------------------------5-7------7---|
E:-------------6---6-656-7----7-7-7-5---------------|


Verse 2 (1:12)

G:-----------------------------------------------------------------|
D:----------------------2-3-------------------------2-3------------|
A:--------3-2---232-0-3--------3------3-2---232-0-3--------3-------|
E:-1-----------------------------1---------------------------1-----|


Chorus 2 (1:47)

G:---------------------------------------------|
D:---------------------------------------7-----|
A:------5-7-5----3-------------------5-7----7--|
E:-1----------------6-6-656-7---7-5------------|

G:--------------------------------------|
D:--------------------------------5--7--|
A:-5--5-3---------------------5-7-------|
E:---------6-6-656-7---7-7-5------------|


Verse 3 (2:18)

G:---------------------------------------------------------------|
D:--------------------2-3--------------------------2-3-----------|
A:------3-2--2-32-0-3--------3-------3-2----32-0-3--------3------|
E:-1---------------------------1----------------------------1----|

G:---------------------------------------------------------------|
D:-------------------2-3-------------------------2-3-------------|
A:---3---2--2-32-0-3-----23--------32--22-32-0-3-------3---------|
E:-1---1--------------------1----------------------------1-------|

G:--------------------------------------------------------------------------|
D:---------------2-3------------------------2-3-------------------2-3-------|
A:--32-22-32-0-3-----3/5------3-2--2-32-0-3-----3--------2-32-0-3-----2h3---|
E:-----------------------1------------------------1-----------------------1-|

G:-------------------------------|
D:-----------2-3-----------------|
A:--2-32-0-3-----2h3-------3-2---|...
E:-------------------1-----------|

Any suggestion are welcome, I might be wrong somewhere...
Suggest correction
Creating personal tab
Creating personal tab
You can edit any tab online and save it as your Personal.

You can edit, replace or remove any tab part or add personal notes – all changes will be seen only by you.

Personal tabs can be accessed anytime from any device, even offline.
Learn more »
Give kudos to tab author, rate the tab!
1 2 3 4 5
comments
print report bad tab
1 comment total.
0 reply
allo_oui_c_moi 31 Nov 12, 2011 11:05 AM

Hello,

First of all, thank you very much for your bass tab of Going to Where the Tea Trees Are. Thanks to it, I was able to write a tab taking into account the rhythm, and with some minor corrections.

If you want to use it to update your, feel free ! Every separation count for 8 times (some I used more dash when I need a triplet for example), except the one with only 4 dash.

Cheers

G|--------|--------|

D|--------|--------|

A|--------|--------|

E|--------|--------|

G|--------|--------|--------|

D|--------|--------|--23----|

A|------3-|2-------|03-----3|

E|1-------|--------|--------|

G|--------|----------------|--------|

D|--------|----------------|--23----|

A|------3-|2------------232|03-----3|

E|1-------|----------------|--------|

G|--------|----------------|--------|----|

D|--------|----------------|--23----|----|

A|------3-|2----------2-232|03-----3|--33|

E|1-------|----------------|--------|11--|

G|--------|----------------|--------|--------|

D|--------|----------------|--------|--------|

A|5-----3-|----------------|--------|----2-3-|

E|--------|6---------6-656-|7-----7-|5-------|

G|--------|----------------|--------|----------------|

D|--------|----------------|--------|------5-7-------|

A|5-----3-|----------------|--------|----57------7---|

E|--------|6---------6-656-|7----777|5---------------|

G|--------|----------------|--------|

D|--------|----------------|--23----|

A|------3-|2-----------2-32|03-----3|

E|1-------|----------------|--------|

G|--------|----------------|--------|

D|--------|----------------|--23----|

A|------3-|2-----------2-32|03-----3|

E|1-------|----------------|--------|

G|--------|----------------|--------|----|

D|--------|----------------|--23----|---3|

A|------3-|2----------2-232|03-----3|--3-|

E|1-------|----------------|--------|11--|

G|--------|----------------|--------|----------------|

D|--------|----------------|--------|--------7-------|

A|5-----3-|----------------|--------|------57----7---|

E|--------|6---------6-656-|7-----7-|5---------------|

G|--------|----------------|--------|----------------|

D|--------|----------------|--------|------5-7-------|

A|5----53-|----------------|--------|----57----------|

E|--------|6---------6-656-|7----77-|5---------------|

G|--------|----------------|--------|

D|--------|----------------|--23----|

A|------3-|2-----------2-32|03-----3|

E|1-------|----------------|--------|

G|--------|----------------|--------|

D|--------|----------------|--23----|

A|------3-|2-------------32|03-----3|

E|1-------|----------------|--------|

G|--------|----------------|----------------|

D|--------|----------------|----2-3---------|

A|------3-|2-----------2-32|0-3-----------33|

E|1----1-1|----------------|----------------|

G|--------|----------------|--------|

D|--------|----------------|--23----|

A|-------3|2---------2-2-32|03-----3|

E|1-------|----------------|--------|

G|--------|--------|----------------|

D|--------|--------|----2-3---------|

A|-------3|2----222|0-3---------35-3|

E|1-------|--------|----------------|

G|--------|----------------|--------|

D|--------|----------------|--23----|

A|-------3|2-----------2-32|03-----3|

E|1-------|----------------|--------|

G|--------|----------------|----------------|

D|--------|----------------|----2-3---------|

A|--------|2-------------32|0-3-----------35|

E|1-------|----------------|----------------|

guest
You may want to rate the tab now too:
select rating
Wanna post a correction for this tab? Suggest correction