Oops, an error
Loading. Please wait.

Langit Tak Mendengar Tab

version 1
version 1

Intro

Interactive

18,032 views 30 this week
no commentswrite comment
1 2 3 4 5
3 more votes to show rating
add to favorites
launch autoscroll
font size
0
reset
how to read this tab
guitar tuner
Autoscroll
slow
fast
+/-
esc
set tempo
stop
Difficulty
novice
[Intro]
E|-----3--2-----3--2-----3-----3--2-----3--2-----3-----3--2-----3--2-----3-|
B|--3--------3--------3-----1--------1--------1-----0--------0--------0----|
G|-------------------------------------------------------------------------|
D|-------------------------------------------------------------------------|
A|-------------------------------------------------------------------------|
E|-------------------------------------------------------------------------|

E|-----3--2-----3--2-----3-----|
B|--3--------3--------3--------|
G|-----------------------------| (2x)
D|-----------------------------|
A|-----------------------------|
E|-----------------------------|

E|----5/7--7--5--5/10--10-10-10-10------10-10-10-10-------10-10-10-10-|
B|-----------------------------------9----------------8---------------|
G|--------------------------------------------------------------------|
D|--------------------------------------------------------------------|
A|--------------------------------------------------------------------|
E|--------------------------------------------------------------------|

E|--------10--9------10--9-----------|
B|----10---------10------------------|
G|-----------------------------------|
D|-----------------------------------| (2x)
A|-----------------------------------|
E|-----------------------------------|
Suggest correction
Give kudos to tab author, rate the tab!
1 2 3 4 5
comments
print report bad tab
guest
You may want to rate the tab now too:
select rating
Wanna post a correction for this tab? Suggest correction