Oops, an error
Loading. Please wait.

Mungkin Nanti Bass Tab

version 1
version 1

Whole song

Interactive

9,192 views 9 this week
2 commentsread comments
1 2 3 4 5
please rate
add to favorites
launch autoscroll
font size
0
reset
guitar tuner
Tab Pro tools
  • play this tab
  • loop segment
  • change instrument
  • show fretboard
  • metronome
×
Best way to learn
"Mungkin Nanti"
Autoscroll
slow
fast
+/-
esc
set tempo
stop
Difficulty
advanced
This is 100% correct. Dedicated to my band in Bengkurong, Brunei Darussalam
(Arvy, Me, Jr, Joven & The Drummer (Whoever you are)..

This is the Tab:-

*NOTE: LISTEN TO THE SONG MANY TIMES AND PLAY SLOWLY, THIS IS NOT A FAST SONG*

Intro
G|--------------------------|
D|-2/7----------------------|
A|--------------------------|
E|--------------------------|

Verse 1 (X2)
G|--------|--------|--------|--------|
D|-7(x16)-|-6(x16)-|--------|-7(x16)-|
A|--------|--------|-5(x16)-|--------|
E|--------|--------|--------|--------|

G|--------|--------|--------|--------|--------|--------|
D|--------|--------|--7(x8)-|--7(x8)-|--5(x8)-|--5(x8)-|
A|--------|--------|--------|--------|--------|--------|
E|--------|--------|--------|--------|--------|--------|

Pre-chorus 1
G|---------|---------|---------|---------|
D|---------|---------|---------|---------|
A|-7---7-7-|-7---7-7-|-5---5-5-|-5---5-5-|
E|---------|---------|---------|---------|

G|---------|---------|---------|---------|
D|---------|---------|---------|---------|
A|-7---7-7-|-7---7-7-|-5~------|---------|
E|---------|---------|---------|---------|

Chorus 1
G|-------|-------|-------|-------|
D|-------|-------|-------|-------|
A|-------|-------|-4-----|-5-----|
E|-5-----|-7-----|-------|-------|

G|-------|-------|-------|-------|-------|
D|-------|-------|-------|-------|-------|
A|-7---\-|-------|-------|-4-----|-5-----|
E|-------|-5-----|-7-----|-------|-------|

G|------|------|
D|------|------|
A|------|------|
E|-0----|------|

Verse 2
G|----------|-----------|------------|-----------|-----------|
D|----------|-----------|-7--6--4----|-----------|-----------|
A|----------|-----------|---------7--|-4--4-4--4-|-4--4-4--4-|
E|-5-5--5---|-5-5--5----|------------|-----------|-----------|

G|-----------|-----------|-----------|---------------|
D|-----------|-------5-6-|-7--7-7--7-|-7-7-----5-6-7-|
A|-5--5-5--5-|-5--5-5-7--|-----------|-----7-7-------|
E|-----------|-----------|-----------|---------------|

G|--------|-----------|-----------|-----------|
D|--------|-----------|-----------|-----------|
A|--------|-----------|-4--4-4--4-|-4--4-4--4-|
E|-5-5--5-|-5--5-5--5-|-----------|-----------|

G|-----------|-----------|------------|-------------|
D|-----------|-----------|------------|----7----5-6-|
A|-5--5-5--5-|-5--5-5--5-|------------|------7-7----|
E|-----------|-----------|-5---5-5--5-|-5-----------|

G|-----------|-----------|-----------|-----------|
D|-7---------|-----------|-----------|-----------|
A|-----------|-----------|-4--4-4--4-|-4--4-4--4-|
E|---5-5--5--|-5--5-5--5-|-----------|-----------|

G|-----------|-----------|-----------|-----------|
D|-----------|-----------|-----------|-----------|
A|-5--5-5--5-|-5--5-5--5-|-----------|-----------|
E|-----------|-----------|-5--5-5--5-|-5--5-5--5-|

Pre-chorus 2
G|-----------|---------|------------|-----------|
D|-----------|---------|------------|-----------|
A|-----------|---------|-5--5-5-----|-5--5-5----|
E|-0--0-0--0-|-0--0-0--|---------5--|-----------|

G|-----------|---------|------------|---------------|
D|-----------|---------|------------|---------------|
A|-----------|---------|-5--5---5---|-5-5-5-5-5-5---|
E|-0--0-0--0-|-0--0-0--|------------|-------------0-|

Chorus 2
G|-----------|--------------|---------------|----------------|
D|-----------|------7-6-4---|---------------|----------------|
A|-----------|------------7-|-4-----4-7--4--|--------4-7-4---|
E|-5--5-5--5-|-5--5---------|-----5---------|------5-------5-|

G|-----------|--------------|------------|----------------|
D|-----------|--------5-5-6-|-7----------|--------7-6-4---|
A|-5--5-5--5-|-7--7-7-------|------------|--------------7-|
E|--------------------------|-----5-5--5-|--5--5----------|

G|-----------|----------------|
D|-----------|----------------|
A|-----------|------/7--5-----|
E|-0--0-0--0-|-0-0--------7-6-|

Interlude
G|-----------|--------------|------------|-----------------|
D|-----------|--------7-6-4-|------------|-----------------|
A|-----------|--------------|-4--4-4--4--|-4-------4-7-4---|
E|-5--5-5--5-|-5----5-------|------------|-------5-------5-|

G|-----------|------------|------------|-----------------|
D|-----------|------------|------------|------------5-6--|
A|-5--5-5--5-|-5--5-5--5--|------------|-----------7-7---|
E|-----------|------------|-0--0-0--0--|-0-------0-------|

G|----------|--------------|-------------|-------------|
D|-7--------|------7-6-4---|-------------|-------------|
A|----------|------------7-|-4----4-7--4-|-----4-7-4---|
E|---5-5--5-|-5--5---------|----5--------|---5-------5-|

G|-----------|--------------|-------------|---------------|
D|-----------|--------5-5-6-|-7-----------|-------7-6-4---|
A|-5--5-5--5-|-7--7-7-------|-------------|-------------7-|
E|-----------|--------------|------5-5--5-|-5---5---------|

G|------------|---------------|-----------|-------------|
D|------------|---------------|-----------|-------------|
A|-4---4-7--4-|-------4-7-4---|-5--5-5--5-|-5--5--------|
E|---5--------|-----5-------5-|-----------|-------7--5--|

G|-----------|---------------|-----------|------------|
D|-----------|---------------|-----------|------7-6-4-|
A|-----------|---------------|-----------|------------|
E|-0--0-0--0-|-0-0--0-0-0--0-|-5--5-5--5-|-5--5-------|

G|------------|--------------|-----------|--------------------|
D|------------|--------------|-----------|--------------------|
A|-4---4-7--4-|------4-7-4---|-5--5-5----|-5--------5-5-5---5-|
E|---5--------|----5---------|---------5-|----------------5---|

G|-----------|---------------|
D|-----------|---------5-5-6-|
A|-7--7-7--7-|-7-7---7-------|
E|-----------|---------------|

Outro
G|---------------|----------------|---------------|----------------|
D|-7-7--7-7-7--7-|-7-7--7-7-7-9-7-|-6-6--6-6-6--6-|-6-6--6-6-6-7-6-|
A|---------------|----------------|---------------|----------------|
E|---------------|----------------|---------------|----------------|

G|---------------|---------------|---------------|-----------------|
D|---------------|---------------|---------------|----------5-6-7~-|
A|-5-5--5-5-5--5-|-5-5--5-5-5--5-|-7-7--7-7-7--7-|-7-7--7-7--------|
E|---------------|---------------|---------------|-----------------|

*Play slowly, Don't obey the placing of the tab or you'll play it in the wrong way*
comments
We did not receive enough feedback on this tab! Please rate:
print report bad tab
1 2 3 4 5
2 comments total.
0 reply
Ashraf99999 wrote on July 3 2007, 04:56 pm

Pretty good bass tab here dude.
Im in a band myself from Singapore, gd luck with urs alrite, thanks for the tab:)

0 reply
qu99n wrote on August 8 2009, 01:30 am

ya.. very good

I want to post or [tab]
guest
You may want to rate the tab now too:
select rating
Please do not post tabs as comments. Select "correction" instead!