Oops, an error
Loading. Please wait.

Semua Tentang Kita Tab

version 1
version 1

Intro

Whole song

282,766 views 771 this week
5 commentsread comments
1 2 3 4 5
excellent!
x 18
add to favorites
launch autoscroll
font size
0
reset
how to read this tab
guitar tuner
Tab Pro tools
  • play this tab
  • loop segment
  • change instrument
  • show fretboard
  • metronome
×
Best way to learn
"Semua Tentang Kita"
Autoscroll
slow
fast
+/-
esc
set tempo
stop
Contributor
Semua Tentang Kita
by PeterPan


one of my fave song!! hopefully it's rite!!



 C                         G                        
|-------------------------|-------------------------|
|-------------------------|-------------------------|
|-------------------------|-------------------------|
|-----2-----2/3--2-----0--|--------0-------0-----2--|
|--3-----3----------3-----|-----2-----2/3-----3-----|
|-------------------------|--3----------------------|

 Am7                     Em
|-----------------------|-----------------------|
|-----------1-----------|-----------0-----------|
|--------------0-----0--|--------0-----0-----0--|
|-----2-----------2-----|-----2-----------2-----|
|--0-----0--------------|-----------------------|
|-----------------------|--0--------------------|

 F                       C                         
|-----------------------|-------------------------|
|-----------1-----------|--------1----------------|
|-----0--------0-----0--|----------------0--------|
|--3-----3--------3-----|-----2-----0/2--------0--|
|-----------------------|--3----------------3-----|
|-----------------------|-------------------------|

 Am7                     G
|-----------------------|-----------------------------1--------|
|-----------1-----------|-----------1--------3-----------3-----|
|--------------0-----0--|--------0-----0--------0-----------0--|
|-----2-----------2-----|-----0-----------0--------0-----------|
|--0-----0--------------|--------------------------------------|
|-----------------------|--3-----------------------------------|


C       G      Am7      Em
Waktu terasa semakin berlalu
    F        C       Am7     G
Tinggalkan cerita tentang kita
C       G      Am7      Em
Akan tiada lagi kini tawamu
    F        C       Am7     G
Tuk hapuskan semua sepi di hati



Chorus:

 C      G          Am7     Em
Ada cerita tentang aku dan dia
    F       C         Am7    G
dan kita bersama saat dulu kala
 C      G          Am7       Em
Ada cerita tentang masa yang indah
     F       C         Am7       G
Saat kita berduka saat kita tertawa


Int.

  C         G         Am7     Em
Teringat di saat kita tertawa bersama
F       C       Am7        G
Ceritakan semua tentang kita


Chorus...
comments
print report bad tab
5 comments total. Showing first comments.
0 reply
Guitar Lover 91 wrote on October 17 2008, 02:20 am

well done! it sounds good. but there're a couple of slight corrections which i thk sound more correct:

C G
|-------------------------|-------------------------|
|-------------------------|-------------------------|
|-------------------------|-------------------------|
|-----2-----2/3--2-----0--|--------0-------0-----0--|
|--3-----3----------3-----|-----2-----2/3-----3-----|
|-------------------------|--3----------------------|

F C
|-----------------------|-------------------------|
|-----------1-----------|--------1----------------|
|-----0--------0-----0--|--------0-------0--------|
|--3-----3--------3-----|-----2-----0/2--------0--|
|-----------------------|--3----------------3-----|
|-----------------------|-------------------------|

i reckon this sounds better, what do you thk?
anyway, great attempt! thx for tabbing, hope you can tab for mungkin nanti too! =)

-2 reply
makin wrote on March 18 2009, 04:10 am

it suck, incomplete.

+1 reply
Georgia_grillz wrote on May 3 2010, 06:46 am

Thanks, you just helped me pass my Indonesian project!

I want to post or [tab]
guest
You may want to rate the tab now too:
select rating
Please do not post tabs as comments. Select "correction" instead!