Oops, an error
Loading. Please wait.

Full Moon tab

577 views 18 this week
no commentswrite comment
1 2 3 4 5
2 more votes to show rating
add to favorites
×
Save as Personal and add changes to this tab that will be seen only by you. Learn more ›
×
You can save this tab as Personal to edit and correct it or add notes. All changes will be seen only by you. Learn more »
launch autoscroll
font size
0
reset
how to read this tab
guitar tuner
edit
Autoscroll
slow
fast
+/-
esc
set tempo
stop
Author
Difficulty
About this tab version
First tab of "Full Moon", coming from the new Petit Biscuit's EP. Was this info helpful? Yes No
©Petit Biscuit
Song : Full Moon (2016)
Official YouTube channel : https://www.youtube.com/channel/UCFuxVFn94f6Neyix7KPzyTg/about

Guitar demo video : https://www.youtube.com/watch?v=Du-MFLMpeTA

NO CAPO - Standard EADGBe tuning

Listen to the song for the rhythm
The whole song is made of 2 guitar parts that are overlayed.

BASS LINE
e|-------------------------------------------------------------------------| \
B|-------------------------------------------------------------------------|  |    
G|-------------------------------------------------------------------------|  |   
D|-------------------------------------------------------------------------|  |   
A|------9-------9-------9-------9---/-------12------12------12------12---\-|  |    
E|--7-------7-------7-------7-------/---10------10------10------10-------\-|  |
                                                                              |
e|-------------------------------------------------------------------------|  |   
B|-------------------------------------------------------------------------|  |    
G|-------------------------------------------------------------------------|  |   
D|-------------------------------------------------------------------------|  |    
A|------5-------5-------5-------5---/-------7-------7-------7-------7----/-|  | x2
E|--3-------3-------3-------3-------/---5-------5-------5-------5--------/-|  |
                                                                              |
                                                                              |
MAIN RIFF                                                                     |
                                                                              |
e|-------------------------------------------------------------------------|  |   
B|------------------5---------------5---------------8---7---7---7----------|  |    
G|--4---7---7---7-------7---7---7-------7---7---7--------------------------|  |   
D|-------------------------------------------------------------------------|  |    
A|-------------------------------------------------------------------------|  |     
E|-------------------------------------------------------------------------|  / 


BASS LINE

e|-------------------------------------------------------------------------| \
B|-------------------------------------------------------------------------|  |    
G|-------------------------------------------------------------------------|  |   
D|-------------------------------------------------------------------------|  |   
A|------9-------9-------9-------9---/-------12------12------12------12---\-|  |    
E|--7-------7-------7-------7-------/---10------10------10------10-------\-|  |
                                                                              |
e|-------------------------------------------------------------------------|  |   
B|-------------------------------------------------------------------------|  |    
G|-------------------------------------------------------------------------|  |   
D|-------------------------------------------------------------------------|  |    
A|------5-------5-------5-------5---/-------7-------7-------7-------7----/-|  | x4 + drums
E|--3-------3-------3-------3-------/---5-------5-------5-------5--------/-|  |
                                                                              |
                                                                              |
MAIN RIFF                                                                     |
                                                                              |
e|-------------------------------------------------------------------------|  |   
B|------------------5---------------5---------------8---7---7---7----------|  |    
G|--4---7---7---7-------7---7---7-------7---7---7--------------------------|  |   
D|-------------------------------------------------------------------------|  |    
A|-------------------------------------------------------------------------|  |     
E|-------------------------------------------------------------------------|  / 

BRIDGE (1:01 - 1:33)

VOCALS (may variate*) 

e|-------------------------------------------------------------------------|  \  
B|--7---7-------7--10----------10---7---7--10-------7----------------------|  |  
G|----------9-----------7---9-------------------9-------7---7---7---7---7--|  | x4 
D|-------------------------------------------------------------------------|  |    
A|-------------------------------------------------------------------------|  |     
E|-------------------------------------------------------------------------|  /

BRIDGE (2:04 - 2:20)

VOCALS (may variate*) 

e|-------------------------------------------------------------------------|  \  
B|--7---7-------7--10----------10---7---7--10-------7----------------------|  |  
G|----------9-----------7---9-------------------9-------7---7---7---7---7--|  | x2
D|-------------------------------------------------------------------------|  |    
A|-------------------------------------------------------------------------|  |     
E|-------------------------------------------------------------------------|  /

MAIN RIFF                                                                   
                                                                              
e|-------------------------------------------------------------------------|  \  
B|------------------5---------------5---------------8---7---7---7----------|  |    
G|--4---7---7---7-------7---7---7-------7---7---7--------------------------|  | x2 + drums  
D|-------------------------------------------------------------------------|  |    
A|-------------------------------------------------------------------------|  |     
E|-------------------------------------------------------------------------|  / 

BASS LINE

e|-------------------------------------------------------------------------| \
B|-------------------------------------------------------------------------|  |    
G|-------------------------------------------------------------------------|  |   
D|-------------------------------------------------------------------------|  |   
A|------9-------9-------9-------9---/-------12------12------12------12---\-|  |    
E|--7-------7-------7-------7-------/---10------10------10------10-------\-|  |
                                                                              |
e|-------------------------------------------------------------------------|  |   
B|-------------------------------------------------------------------------|  |    
G|-------------------------------------------------------------------------|  |   
D|-------------------------------------------------------------------------|  |    
A|------5-------5-------5-------5---/-------7-------7-------7-------7----/-|  | 
E|--3-------3-------3-------3-------/---5-------5-------5-------5--------/-|  |
                                                                              |
                                                                              | x6 + drums
MAIN RIFF                                                                     |
                                                                              |
e|-------------------------------------------------------------------------|  |   
B|------------------5---------------5---------------8---7---7---7----------|  |    
G|--4---7---7---7-------7---7---7-------7---7---7--------------------------|  |   
D|-------------------------------------------------------------------------|  |    
A|-------------------------------------------------------------------------|  |     
E|-------------------------------------------------------------------------|  |
                                                                              |
VOCALS (may variate*)                                                         |
                                                                              |
e|-------------------------------------------------------------------------|  |  
B|--7---7-------7--10----------10---7---7--10-------7----------------------|  | 
G|----------9-----------7---9-------------------9-------7---7---7---7---7--|  |  
D|-------------------------------------------------------------------------|  |   
A|-------------------------------------------------------------------------|  |    
E|-------------------------------------------------------------------------|  /

BRDIGE (3:37 - 3:52)

VOCALS (may variate*)                                                       
                                                                              
e|-------------------------------------------------------------------------|  \ 
B|--7---7-------7--10----------10---7---7--10-------7----------------------|  | 
G|----------9-----------7---9-------------------9-------7---7---7---7---7--|  | x4
D|-------------------------------------------------------------------------|  |   
A|-------------------------------------------------------------------------|  |    
E|-------------------------------------------------------------------------|  /

BRIDGE (4:23 - 5:10)

ENDING (5:10 - 5:38)

END

************************************

  /   Slide up
  \   Slide down

************************************

            
            
Suggest correction
Creating personal tab
Creating personal tab
You can edit any tab online and save it as your Personal.

You can edit, replace or remove any tab part or add personal notes – all changes will be seen only by you.

Personal tabs can be accessed anytime from any device, even offline.
Learn more »
Give kudos to tab author, rate the tab!
1 2 3 4 5
comments
print report bad tab
guest
You may want to rate the tab now too:
select rating
Wanna post a correction for this tab? Suggest correction