Oops, an error
Loading. Please wait.

Sunset Lover tab

version 1
version 1

Whole song

Interactive

24,649 views 375 this week
4 commentsread comments
1 2 3 4 5
x 14
add to favorites
×
Save as Personal and add changes to this tab that will be seen only by you. Learn more ›
×
You can save this tab as Personal to edit and correct it or add notes. All changes will be seen only by you. Learn more »
launch autoscroll
font size
0
reset
how to read this tab
guitar tuner
edit
Autoscroll
slow
fast
+/-
esc
set tempo
stop
Author
Difficulty
©Petit Biscuit
Official YouTube channel : https://www.youtube.com/channel/UCFuxVFn94f6Neyix7KPzyTg/about
Guitar demo video : https://youtu.be/9hVJExCmPeA
Song : Sunset Lover (2015)

NO CAPO - Standard EADGBe tuning

Listen to the song for the rhythm


[MAIN RIFF]

e|-------------------------------------------------------------------|     \
B|----4----4----4----4----4-/6----6----6-/7----7----7----7-----------|      |
G|-------------------------------------------------------------------|      |
D|-------------------------------------------------------------------|      |
A|----2----2----2----2----2-/4----4----4-/6----6----6----6-----------|      |
E|-------------------------------------------------------------------|      |
                                                                            |
                                                                            |  Repeat this pattern
                                                                            |
e|-------------------------------------------------------------------|      |
B|-------------------------------------------------------------------|      |
G|----3----3----3----3----3-/4----4----4-/6----6----6----6-----------|      |
D|-------------------------------------------------------------------|      |
A|-------------------------------------------------------------------|      |
E|----2----2----2----2----2-/4----4----4-/6----6----6----6-----------|     /


[VOCALS]

e|--------------4----6----6----4---------6---------------------------------------| 
B|----7----7------------------------7---------6----6----4----6----7----4---------|
G|--------------------------------------------------------------------------6----|
D|-------------------------------------------------------------------------------|
A|-------------------------------------------------------------------------------|
E|-------------------------------------------------------------------------------|

e|--------------9----6----4---------6-----------------------------6----4---------| 
B|----7----7-------------------7---------6----6----4----6----7-------------------|
G|-------------------------------------------------------------------------------|
D|-------------------------------------------------------------------------------|
A|-------------------------------------------------------------------------------|
E|-------------------------------------------------------------------------------|


[VOCALS 2] 


e|------------------------------------------------------6----4-------------------| 
B|----7----7----7----7----7----6----6----4---------------------------------------|
G|--------------------------------------------6----x-----------------------------|
D|-------------------------------------------------------------------------------|
A|-------------------------------------------------------------------------------|
E|-------------------------------------------------------------------------------|

e|------------------------------------------------------6----6----6----6---------| 
B|----7----7----7----7----7----6----6----4---------------------------------------|
G|--------------------------------------------6----x-----------------------------|
D|-------------------------------------------------------------------------------|
A|-------------------------------------------------------------------------------|
E|-------------------------------------------------------------------------------|


[BREAK]

e|-------------------------------------------------------------------------------|
B|-------------------------------------------------------------------------------|
G|----6-\4----3---------3---------------------3----6-----------------------------|
D|-----------------6---------4----4h6----6--------------4------------------------|
A|-------------------------------------------------------------------------------|
E|-------------------------------------------------------------------------------|

e|-------------------------------------------------------------------------------|
B|-------------------------------------------------------------------------------|
G|----6-\4----3---------3---------------------3----------------------------------|
D|-----------------6---------4----4h6----6----------4----------------------------|
A|-------------------------------------------------------6-----------------------|
E|-------------------------------------------------------------------------------|


[STRUCTURE]

(0:00) - MAIN RIFF x 2
(0:21) - MAIN RIFF + VOCALS x 4
(1:03) - MAIN RIFF + VOCALS (2) x 2
(1:24) - BREAK x 2
(1:45) - VOCALS x 2
(2:06) - MAIN RIFF + VOCALS (2) x 4
(2:48) - MAIN RIFF + VOCALS x 2
(3:09) - MAIN RIFF + BREAK x 2
(3:31) - MAIN RIFF x 2
(3:51) - END


************************************

  h   Hammer-on
  x   Ghost note
  /   Slide up
  \   Slide down

************************************

            
            
Suggest correction
Creating personal tab
Creating personal tab
You can edit any tab online and save it as your Personal.

You can edit, replace or remove any tab part or add personal notes – all changes will be seen only by you.

Personal tabs can be accessed anytime from any device, even offline.
Learn more »
comments
print report bad tab
4 comments total. Showing first comments.
0 reply
MsAsse42 58 Nov 05, 2016 07:18 AM

merci beaucoup !

guest
You may want to rate the tab now too:
select rating
Wanna post a correction for this tab? Suggest correction