Oops, an error
Loading. Please wait.

Amazing Grace Tab

4,227 views 1 this week
1 commentread comment
1 2 3 4 5
please rate
add to favorites
launch autoscroll
font size
0
reset
how to read this tab
guitar tuner
Autoscroll
slow
fast
+/-
esc
set tempo
stop
Help us to improve Ultimate-Guitar.com Take our survey!
×
              Petra – Amazing Grace
                 From “FAREWELL”

By Sanjeev George and Thomas George Varghese

Contact at SanjeevGeorge123@yahoo.co.in

Main Chords used

       E5          G5            D5       F#5     A5     C5    Em   G
eb|------------------------------------------------------------0----3-------|
Bb|------------------------------------------------------------0----3-------|
Gb|--9-----------------12-----7------------11------------5-----0----4-------|
Db|--9-AND-2-----5-----12-----7-AND-12-----11-----7------5-----2----5-------|
Ab|--7-----2-----5-AND-10-----5-----12-----9------7------3-----2—---5-------|
Eb|--------0-----3------------------10------------5------------0----3-------|


| b  bend
| r  release bend
| /  slide up 
| \  slide down
| h  hammer-on
| p  pull-off
| ~  hold note ands let ring
| v  vibrato
| .  play and mute with fretting hand


Tune down half step:  Eb Ab Db Gb Bb eb

Intro with verse

Play this part 4 times

eb|----------------------------------------------------------------------------------------------|
Bb|----------------------------------------------------------------------------------------------|
Gb|--9--9-x--9----9-----12--12-x--12-----12------------------------------------------------------|
Db|--9--9-x--9----9-----12--12-x--10-----12-----12--12-x--12-----12-10-10h12-x-x--12-12-12-------|
Ab|--7--7-x--7--7-------10--10-x--10--10--------12--12-x--12-----12-10—10h12-x-x--12-12-12-------|
Eb|---------------------------------------------10--10-x--10--10-------------x-x--10-10-10-------|

Then

eb|--------------------------------------------------------------------------------------|
Bb|--------------------------------------------------------------------------------------|
Gb|------------------------------------------7--7-x--7---7-7-7---7/9--7------------------|
Db|--2--2-x--2---2-2-2---5--5-x--5---5-5-5---7--7-x--7---7-7-7----------9-7h9-9-7\5------|
Ab|--2--2-x--2---2-2-2---5--5-x--5---5-5-5---5--5-x--5---5-5-5----------------------7----|
Eb|----------------------3--3-x--3---3-3-3-----------------------------------------------|


eb|--------------------------------------------------------------------|
Bb|--------------------------------------------------------------------|
Gb|------------------------------------------7--7-x--7---7-7-7---------|
Db|--2--2-x--2---2-2-2---5--5-x--5---5-5-5---7--7-x--7---7-7-7---------|
Ab|--2--2-x--2---2-2-2---5--5-x--5---5-5-5---5--5-x--5---5-5-5---------|
Eb|----------------------3--3-x--3---3-3-3-----------------------------|


eb|----------------------------------------------|
Bb|----------------------------------------------|
Gb|--7-7-7-7---9-9-9-9---11-11-11-11—-12\--------|
Db|----------------------------------------------|
Ab|--5-5-5-5---7-7-7-7---9—-9—-9--9---10\--------|
Eb|----------------------------------------------|





Verse 1

eb|-----------------------------------------------------------------------------|
Bb|-----------------------------------------------------------------------------|
Gb|------------------------------------7--7-x--7--7-7---7--7-x--7--7-7----------|
Db|--2--2-x--2--2-2---5--5-x--5--5-5---7--7-x--7--7-7---7--7-x--7--7-7----------|
Ab|--2--2-x--2--2-2---5--5-x--5--5-5---5--5-x--5--5-5---5--5-x—-5--5-5----------|
Eb|-------------------3--3-x--3--3-3--------------------------------------------|

eb|-----------------------------------------------------------------------------|
Bb|-----------------------------------------------------------------------------|
Gb|--9--9-x--9--9-9----12--12-x--12--12-12--------------------------------------|
Db|--9--9-x--9--9-9----12--12-x--10--12-12---12--12-x--12—-12-12---12-x--12-12--|
Ab|--7--7-x--7--7-7----10--10-x--10--10-10---12--12-x--12--12-12---12-x--12-12--|
Eb|------------------------------------------10--10-x--10--10-10---10-x--10-10--|

Chorus:

“But Your Love came down………..”
eb|-------------------------3---------------------------0----------|
Bb|-------------------------3---------------------------0----------|
Gb|--5-5-5-5-5-5-5-5--------4----5-5-5-5-5-5-5-5--------0----------|
Db|--5-5-5-5-5-5-5-5--5-5-5-5----5-5-5-5-5-5-5-5--2-2-2-2----------|
Ab|--3-3-3-3-3-3-3-3--5-5-5-5----3-3-3-3-3-3-3-3--2-2-2-2----------|
Eb|-------------------3-3-3-3---------------------0-0-0-0----------|


                                   ……..And It saved me!”
eb|----------------------------------------------------------------|
Bb|----------------------------------------------------------------|
Gb|--5-5-5-5-5-5-5-5------------------------------5-5-5-5~---------|
Db|--5-5-5-5-5-5-5-5--5-5-5-5----7-7-7-7-7-7-7-7--5-5-5-5~---------|
Ab|--3-3-3-3-3-3-3-3--5-5-5-5----7-7-7-7-7-7-7-7--3-3-3-3~---------|
Eb|-------------------3-3-3-3----5-5-5-5-5-5-5-5-------------------|


Verse 2

eb|-----------------------------------------------------------------------------|
Bb|-----------------------------------------------------------------------------|
Gb|------------------------------------7--7-x--7--7-7---7--7-x--7--7-7----------|
Db|--2--2-x--2--2-2---5--5-x--5--5-5---7--7-x--7--7-7---7--7-x--7--7-7----------|
Ab|--2--2-x--2--2-2---5--5-x--5--5-5---5--5-x--5--5-5---5--5-x—-5--5-5----------|
Eb|-------------------3--3-x--3--3-3--------------------------------------------|

eb|-----------------------------------------------------------------------------|
Bb|-----------------------------------------------------------------------------|
Gb|--9--9-x--9--9-9----12--12-x--12--12-12--------------------------------------|
Db|--9--9-x--9--9-9----12--12-x--10--12-12---12--12-x--12—-12-12---12-x--12-12--|
Ab|--7--7-x--7--7-7----10--10-x--10--10-10---12--12-x--12--12-12---12-x--12-12--|
Eb|------------------------------------------10--10-x--10--10-10---10-x--10-10--|


Chorus:

“But Your Love came down………..”
eb|-------------------------3---------------------------0----------|
Bb|-------------------------3---------------------------0----------|
Gb|--5-5-5-5-5-5-5-5--------4----5-5-5-5-5-5-5-5--------0----------|
Db|--5-5-5-5-5-5-5-5--5-5-5-5----5-5-5-5-5-5-5-5--2-2-2-2----------|
Ab|--3-3-3-3-3-3-3-3--5-5-5-5----3-3-3-3-3-3-3-3--2-2-2-2----------|
Eb|-------------------3-3-3-3---------------------0-0-0-0----------|


                           ……..And It saved me!”
eb|------------------------------------------------------|
Bb|------------------------------------------------------|
Gb|--5-5-5-5-5-5-5-5-------------------------------------|
Db|--5-5-5-5-5-5-5-5--5-5-5-5----7-7-7-7-7-7-7-7--~------|
Ab|--3-3-3-3-3-3-3-3--5-5-5-5----7-7-7-7-7-7-7-7---------|
Eb|-------------------3-3-3-3----5-5-5-5-5-5-5-5---------|

“But Your Love came down………..”
eb|-------------------------3---------------------------0----------|
Bb|-------------------------3---------------------------0----------|
Gb|--5-5-5-5-5-5-5-5--------4----5-5-5-5-5-5-5-5--------0----------|
Db|--5-5-5-5-5-5-5-5--------5----5-5-5-5-5-5-5-5--2-2-2-2----------|
Ab|--3-3-3-3-3-3-3-3--5-5-5-5----3-3-3-3-3-3-3-3--2-2-2-2----------|
Eb|-------------------3-3-3-3---------------------0-0-0-0----------|


                                   ……..And It saved me!”
eb|------------------------------------------------------------------|
Bb|------------------------------------------------------------------|
Gb|--5-5-5-5-5-5-5-5------------------------------5-5-5-5-5-5-5-5----|
Db|--5-5-5-5-5-5-5-5--5-5-5-5----7-7-7-7-7-7-7-7--5-5-5-5-5-5-5-5----|
Ab|--3-3-3-3-3-3-3-3--5-5-5-5----7-7-7-7-7-7-7-7--3-3-3-3-3-3-3-3----|
Eb|-------------------3-3-3-3----5-5-5-5-5-5-5-5---------------------|

Then

eb|--------------------------------------------------------------|
Bb|--------------------------------------------------------------|
Gb|------------------5--5-x-5--5-5-------------------5-x-5-5-----|
Db|--5--5-x-5--5-5---5--5-x-5--5-5---2--2-x-2--2-2---5-x-5-5-----|
Ab|--5--5-x-5--5-5---3--3-x-3--3-3---2--2-x-2--2-2---3-x-3-3-----|
Eb|--3--3-x-3--3-3-------------------0--0-x-0--0-0---------------|


Solo

eb|-----------------------5-----5--------7------7------7------7---------------|
Bb|-----5--------3--------8b10v-8b10v----10b12--10b12v-10b12--10b12v----------|
Gb|-----7b9v-----5b7v---------------------------------------------------------|
Db|---------------------------------------------------------------------------|
Ab|---------------------------------------------------------------------------|
Eb|---------------------------------------------------------------------------|

eb|----------------------------------------------|
Bb|--10b12v---8v---------8-10b12-r10p8-----------|
Gb|------------------7/9---------------9v--------|
Db|----------------------------------------------|
Ab|----------------------------------------------|
Eb|----------------------------------------------|





eb|-------------------7---------------------------------|
Bb|------7-8---7-8-10---8-------------------------------|
Gb|--7-9-----9------------9v-----7-9-9b12---7---7v------|
Db|-------------------------------------------9---------|
Ab|-----------------------------------------------------|
Eb|-----------------------------------------------------|

eb|--12-14h15--14-------------14-15h17--15--14---------15-17h19--17--15-17v----|
Bb|----------------15-12v----------------------17v-----------------------------|
Gb|----------------------------------------------------------------------------|
Db|----------------------------------------------------------------------------|
Ab|----------------------------------------------------------------------------|
Eb|----------------------------------------------------------------------------|


Bridge

“Though we’ve been a thousand years………..”

eb|-------------7-------------------3-------------------5--------------|
Bb|-------7-------7-----------3-------3-----------5-------5------------|
Gb|---------9-------9-----------4-------4-----------7-------7----------|
Db|--------------------------------------------------------------------|
Ab|-----7-----7-------------5-----5-------------5-----5----------------|
Eb|---7-------------------3-------------------5------------------------|

eb|--7--7----3--3-----5--5-------------5----|
Bb|--7--7----3--3-----5--5-------5----------|
Gb|--9--9----4--4-----7--7---------7--------|
Db|--9--9----5--5-----7--7------------------|
Ab|--7--7----5--5-----5--5-----5-----5------|
Eb|--7--7----3--3-----5--5---5--------------|


Chorus again

“But Your Love came down………..”
eb|-------------------------3---------------------------0----------|
Bb|-------------------------3---------------------------0----------|
Gb|--5-5-5-5-5-5-5-5--------4----5-5-5-5-5-5-5-5--------0----------|
Db|--5-5-5-5-5-5-5-5--5-5-5-5----5-5-5-5-5-5-5-5--2-2-2-2----------|
Ab|--3-3-3-3-3-3-3-3--5-5-5-5----3-3-3-3-3-3-3-3--2-2-2-2----------|
Eb|-------------------3-3-3-3---------------------0-0-0-0----------|


                           ……..And It saved me!”
eb|------------------------------------------------------|
Bb|------------------------------------------------------|
Gb|--5-5-5-5-5-5-5-5-------------------------5-5-5-5-----|
Db|--5-5-5-5-5-5-5-5--5-5-5-5----7-7-7-7-----5-5-5-5-----|
Ab|--3-3-3-3-3-3-3-3--5-5-5-5----7-7-7-7-----3-3-3-3-----|
Eb|-------------------3-3-3-3----5-5-5-5-----------------|

“But Your Love came down………..”
eb|-------------------------3---------------------------0----------|
Bb|-------------------------3---------------------------0----------|
Gb|--5-5-5-5-5-5-5-5--------4----5-5-5-5-5-5-5-5--------0----------|
Db|--5-5-5-5-5-5-5-5--------5----5-5-5-5-5-5-5-5--2-2-2-2----------|
Ab|--3-3-3-3-3-3-3-3--5-5-5-5----3-3-3-3-3-3-3-3--2-2-2-2----------|
Eb|-------------------3-3-3-3---------------------0-0-0-0----------|


                                   ……..And It saved me!”
eb|------------------------------------------------------------------|
Bb|------------------------------------------------------------------|
Gb|--5-5-5-5-5-5-5-5------------------------------5-5-5-5-5-5-5-5----|
Db|--5-5-5-5-5-5-5-5--5-5-5-5----7-7-7-7-7-7-7-7--5-5-5-5-5-5-5-5----|
Ab|--3-3-3-3-3-3-3-3--5-5-5-5----7-7-7-7-7-7-7-7--3-3-3-3-3-3-3-3----|
Eb|-------------------3-3-3-3----5-5-5-5-5-5-5-5---------------------|


Then outro solo (Not tabbed)

Ending

eb|------------------------------------------------------------|
Bb|------------------------------------------------------------|
Gb|-----5-5-----------------------------5-5--------------------|
Db|-----5-5-----5-5-----7-7-----2-2-----5-5-----5-5------------|
Ab|-----3-3-----5-5-----7-7-----2-2-----3-3-----5-5------------|
Eb|-------------3-3-----5-5-----0-0-------------3-3------------|


eb|-------------------------------------------------------------|
Bb|-------------------------------------------------------------|
Gb|------------------------5---------5---5-5---5--5-5~----------|
Db|-----7---------7---7-7--5---------5---5-5---5--5-5~----------|
Ab|-----7---------7---7-7--3-3-3-3-3-3-3-3-3---3--3-3~----------|
Eb|-----5-5-5-5-5-5-5-5-5---------------------------------------|


eb|---------------------------------------------------------------|
Bb|---------------------------------------------------------------|
Gb|-----12-\-10/12-12/15-15/17-17\15-12\10-10/12—-12~-------------|
Db|-----12-\------------------------------------------------------|
Ab|-----10-\--8/10-10/13-13/15-15\13-10\8---8/10—-10~-------------|
Eb|---------------------------------------------------------------|

Please rate



Suggest correction
Give kudos to tab author, rate the tab!
1 2 3 4 5
comments
print report bad tab
1 comment total.
0 reply
SWLABR 832 wrote on April 13 2012, 11:49 pm

During the chorus I would make the second C an A minor instead. So the progression would be C G Am Em C G Am

guest
You may want to rate the tab now too:
select rating
Wanna post a correction for this tab? Suggest correction