Oops, an error
Loading. Please wait.

Armed And Dangerous tab

by Petra
46 views 3 this week
no commentswrite comment
1 2 3 4 5
3 more votes to show rating
add to favorites
×
Save as Personal and add changes to this tab that will be seen only by you. Learn more ›
×
You can save this tab as Personal to edit and correct it or add notes. All changes will be seen only by you. Learn more »
launch autoscroll
font size
0
reset
how to read this tab
guitar tuner
edit
Autoscroll
slow
fast
+/-
esc
set tempo
stop
Artist: Petra -- Beyond Belief
Song: Armed and Dangerous
by: Bob Hartman 
year: 1990
Tempo: 149 BPM 
tab: Christoph Mertinat (crushtoph[at]gmx.de)

Armed and dangerous - Petra
[Intro]
M1 Em                                                  Em                        G
e|-------------------------|-------------------------|-------------------------|-------------------------|
B|-------------------------|-------------------------|-------------------------|-------------------------|
G|-------------------------|-------------------------|-------------------------|-------------------------|
D|-------------------------|-5-----------------------|-------------------------|-5---5---5---5---5-------|
A|-------7-----5-----7-----|-------7-----5---7-------|-------7-----5-----7-----|-------------------------|
E|-0---0-----0-----0-----0-|-----0-----0-------0---0-|-0---0-----0-----0-----0-|-------------------------|
   1 o e 2 o e 3 o e 4 o e | 1 o e 2 o e 3 o e 4 o e | 1 o e 2 o e 3 o e 4 o e | 1 o e 2 o e 3 o e 4 o e |

M5 Am                        Em          D             Am                        Em    F#    D          
e|-------------------------|-------------------------|-------------------------|-------------------------|
B|-------------------------|-------------------------|-------------------------|-------------------------|
G|-------------------------|-4-----------------------|-------------------------|-------------------------|
D|-7---------7-------------|-----5-------7---4-------|-7---------7-------------|-9----11-----7-----------|
A|-7---------7-------------|---------7-----------5---|-7---------7-------------|-7-----9-----5-----------|
E|-5---5-5---5-------------|-------------------------|-5---5-5---5-------------|-------------------------|
   1 o e 2 o e 3 o e 4 o e | 1 o e 2 o e 3 o e 4 o e | 1 o e 2 o e 3 o e 4 o e | 1 o e 2 o e 3 o e 4 o e |

M9 Am                        Em          D             Am                        Em    F#    D          
e|-------------------------|-------------------------|-------------------------|-------------------------|
B|-------------------------|-------------------------|-------------------------|-------------------------|
G|-------------------------|-4-----------------------|-------------------------|-------------------------|
D|-7---------7-------------|-----5-------7---4-------|-7---------7-------------|-------4-----------------|
A|-7---------7-------------|---------7-----------5---|-7---------7-------------|-7-----------5-----------|
E|-5---5-5---5-------------|-------------------------|-5---5-5---5-------------|-------------------------|
   1 o e 2 o e 3 o e 4 o e | 1 o e 2 o e 3 o e 4 o e | 1 o e 2 o e 3 o e 4 o e | 1 o e 2 o e 3 o e 4 o e |

M13 F
e|------------------|-----------------|-----------------|-----------------|
B|------------------|-----------------|-----------------|-----------------|
G|-[hold]-----------|-----------------|-[hold]----------|-----------------|
D|--3---------------|-----------------|-3---------------|-----------------|
A|--3---------------|-----------------|-3---------------|-----------------|
E|--1---------------|-----------------|-1---------------|-----------------|
    1 + 2 + 3 + 4 + | 1 + 2 + 3 + 4 + | 1 + 2 + 3 + 4 + | 1 + 2 + 3 + 4 + | 

[Verse1]
M17 C           D             G                         Am                        G         Am
e|--------------------------|-------------------------|-------------------------|-------------------------|
B|--------------------------|-------------------------|-------------------------|-------------------------|
G|--5-----------7-----------|-------------------------|-------------------------|-5-----------------------|
D|--5-----------7-----------|-5-----------------------|-------7-----5-----7-----|-------7-----5---7-------|
A|--3-----------5-----------|-5-----------------------|-0---0-----0-----0-----0-|-----0-----0-------0---0-|
E|--------------------------|-3-----------------------|-------------------------|-------------------------|
    1 o e 2 o e 3 o e 4 o e | 1 o e 2 o e 3 o e 4 o e | 1 o e 2 o e 3 o e 4 o e | 1 o e 2 o e 3 o e 4 o e |
   It used to   be a distant call

M21 D                         F                          G                         F     E     G     B
e|--------------------------|-------------------------|--------------------------|-------------------------|
B|--------------------------|-------------------------|--------------------------|-------------------------|
G|--7-----------------------|-------------------------|--------------------------|-------------------------|
D|--7-----------------------|-3-----------------------|--5-----------------------|-------------------4-----|
A|--5-----------------------|-3-----------------------|--5-----------------------|-3-----2-----5-----2-----|
E|--------------------------|-1-----------------------|--3-----------------------|-1-----0-----3-----------|
    1 o e 2 o e 3 o e 4 o e | 1 o e 2 o e 3 o e 4 o e |  1 o e 2 o e 3 o e 4 o e | 1 o e 2 o e 3 o e 4 o e |
     Thought to be for        some but never             all

M25 C           D             G                         Am                        G         Am
e|--------------------------|-------------------------|-------------------------|-------------------------|
B|--------------------------|-------------------------|-------------------------|-------------------------|
G|--5-----------7-----------|-------------------------|-------------------------|-5-----7-----------------|
D|--5-----------7-----------|-5-----------------------|-------7-----5---7-------|-------------5---7-------|
A|--3-----------5-----------|-5-----------------------|-0---0-----0-------0---0-|-----0-----0-------0---0-|
E|--------------------------|-3-----------------------|-------------------------|-------------------------|
    1 o e 2 o e 3 o e 4 o e | 1 o e 2 o e 3 o e 4 o e | 1 o e 2 o e 3 o e 4 o e | 1 o e 2 o e 3 o e 4 o e |
 Now our wounded lay on every side

M29 D                         F                          G                         F           G     E
e|--------------------------|-------------------------|--------------------------|-------------------------|
B|--------------------------|-------------------------|--------------------------|-------------------------|
G|--7-----------------------|-------------------------|--------------------------|-------------------------|
D|--7-----------------------|-3-----------------------|--5-----------------------|-------------------9-----|
A|--5-----------------------|-3-----------------------|--5-----------------------|-3-----3-----5-----7-----|
E|--------------------------|-1-----------------------|--3---3-3---3-3---3-3---3-|-1---1-1---1-3---3-------|
    1 o e 2 o e 3 o e 4 o e | 1 o e 2 o e 3 o e 4 o e |  1 o e 2 o e 3 o e 4 o e | 1 o e 2 o e 3 o e 4 o e |
    Now this call to arms can´t be denied


M33 D#                Bb                D#                Bb      F   A
e|------------------|-----------------|-----------------|-----------------|
B|------------------|-----------------|-----------------|-----------------|
G|--8---------------|-----------------|-8---------------|-----------------|
D|--8---------------|-8---------------|-8---------------|-8-------3---7---|
A|--6---------------|-8---------------|-6---------------|-8-------3---7---|
E|------------------|-6---------------|-----------------|-6-------1---5---|
    1 + 2 + 3 + 4 + | 1 + 2 + 3 + 4 + | 1 + 2 + 3 + 4 + | 1 + 2 + 3 + 4 + |
       The Enemy will tremble               as young and old assemble

M37 C                 G       A         B                F#   A   B   C#
e|------------------|-----------------|-----------------|-----------------|
B|------------------|-----------------|-----------------|-----------------|
G|--5---------------|---------2-------|-4---------------|-----2---4---6---|
D|--5---------------|-5-------2-------|-4---------------|-4---2---4---6---|
A|--3---------------|-5-------0-------|-2---------------|-4---0---2---4---|
E|------------------|-3---------------|-----------------|-2---------------|
    1 + 2 + 3 + 4 + | 1 + 2 + 3 + 4 + | 1 + 2 + 3 + 4 + | 1 + 2 + 3 + 4 + |
         A mighty     army    up in     arms

[Chorus]
M41 D                         D         E                A           G#            F#          E  
e|--------------------------|-------------------------|--------------------------|-------------------------|
B|--------------------------|-------------------------|--------------------------|-------------------------|
G|--------------------------|-------------------------|--------------------------|-------------------------|
D|--7-----7-----7-----7-----|-7-----7---9-------------|--7-----7-----6-----6-----|-4-----4-----------------|
A|--5---5-5-5-5-5---5-5-5-5-|-5---5-5-5-7-----7-7---7-|--7-----7-----6-----6-----|-4-----4-----2-----2-----|
E|--------------------------|-------------------------|--5---5-5---5-4---4-4---4-|-2---2-2---2-0---0-0---0-|
    1 o e 2 o e 3 o e 4 o e | 1 o e 2 o e 3 o e 4 o e |  1 o e 2 o e 3 o e 4 o e | 1 o e 2 o e 3 o e 4 o e |
    Armed       and           dangerous                         Gods   ene------mies     will scatter

M45 D                         D         E                D                         E           B    C#
e|--------------------------|-------------------------|--------------------------|-------------------------|
B|--------------------------|-------------------------|--------------------------|-------------------------|
G|--------------------------|-------------------------|--------------------------|-------------------------|
D|--7-----7-----7-----7-----|-7-----7---9-------------|--7-----------7-----------|-9-----------------------|
A|--5---5-5-5-5-5---5-5-5-5-|-5---5-5-5-7-----7-7---7-|--5-----5-5-5-5-----5-5-5-|-7-----7-7-7-9----11-----|
E|--------------------------|-------------------------|--------------------------|-------------7-----9-----|
    1 o e 2 o e 3 o e 4 o e | 1 o e 2 o e 3 o e 4 o e |  1 o e 2 o e 3 o e 4 o e | 1 o e 2 o e 3 o e 4 o e |
    Armed       and           dangerous                         We'll see the      darkness    shatter

M49 F#                        E                          F#                        F#    A     B     C#
e|--------------------------|-------------------------|--------------------------|-------------------------|
B|--------------------------|-------------------------|--------------------------|-------------------------|
G|--------------------------|-------------------------|--------------------------|-------------------------|
D|--------------------------|-------------------------|--------------------------|-------2-----4-----6-----|
A|--4-----4-----------4-----|-2-----2-----------2-----|--4-----4-----------4-----|-4-----0-----2-----4-----|
E|--2-----2-2-2-2-2-2-2-----|-0-----0-0-0-0-0-0-0-----|--2-----2-2-2-2-2-2-2-----|-2-----------------------|
    1 o e 2 o e 3 o e 4 o e | 1 o e 2 o e 3 o e 4 o e |  1 o e 2 o e 3 o e 4 o e | 1 o e 2 o e 3 o e 4 o e |
          His armor   is      worth its   weight               No weapon can       penetrate


M53 D                         D         E                F                         G
e|--------------------------|-------------------------|--------------------------|-------------------------|
B|--------------------------|-------------------------|--------------------------|-------------------------|
G|--------------------------|-------------------------|--------------------------|-------------------------|
D|--7-----7-----7-----7-----|-7-----7---9-------------|--3-----------------------|-5-----------------------|
A|--5---5-5-5-5-5---5-5-5-5-|-5---5-5-5-7-----7-7---7-|--3-----------------------|-5-----------------------|
E|--------------------------|-------------------------|--1-----------------------|-3-----------------------|
    1 o e 2 o e 3 o e 4 o e | 1 o e 2 o e 3 o e 4 o e |  1 o e 2 o e 3 o e 4 o e | 1 o e 2 o e 3 o e 4 o e |
    Armed       and           dangerous                        We're ready to            storm the gate 


M57 Am                        Em          D 
e|--------------------------|-------------------------|--------------------------|-------------------------|
B|--------------------------|-------------------------|--------------------------|-------------------------|
G|--------------------------|-4-----------------------|--------------------------|-------------------------|
D|--7---------7-------------|-----5-------7---4-------|--7---------7-------------|-------4-----------------|
A|--7---------7-------------|---------7-----------5---|--7---------7-------------|-7-----------5-----------|
E|--5---5-5---5-------------|-------------------------|--5---5-5---5-------------|-------------------------|
    1 o e 2 o e 3 o e 4 o e | 1 o e 2 o e 3 o e 4 o e |  1 o e 2 o e 3 o e 4 o e | 1 o e 2 o e 3 o e 4 o e |

[Verse2]
M61 C           D             G                         Am                        G         Am
e|--------------------------|-------------------------|-------------------------|-------------------------|
B|--------------------------|-------------------------|-------------------------|-------------------------|
G|--5-----------7-----------|-------------------------|-------------------------|-5-----------------------|
D|--5-----------7-----------|-5-----------------------|-------7-----5-----7-----|-------7-----5---7-------|
A|--3-----------5-----------|-5-----------------------|-0---0-----0-----0-----0-|-----0-----0-------0---0-|
E|--------------------------|-3-----------------------|-------------------------|-------------------------|
    1 o e 2 o e 3 o e 4 o e | 1 o e 2 o e 3 o e 4 o e | 1 o e 2 o e 3 o e 4 o e | 1 o e 2 o e 3 o e 4 o e |
   We're not so tough on our own

M65 D                         F                          G                         F     E     G     B
e|--------------------------|-------------------------|--------------------------|-------------------------|
B|--------------------------|-------------------------|--------------------------|-------------------------|
G|--7-----------------------|-------------------------|--------------------------|-------------------------|
D|--7-----------------------|-3-----------------------|--5-----------------------|-------------------4-----|
A|--5-----------------------|-3-----------------------|--5-----------------------|-3-----2-----5-----2-----|
E|--------------------------|-1-----------------------|--3-----------------------|-1-----0-----3-----------|
    1 o e 2 o e 3 o e 4 o e | 1 o e 2 o e 3 o e 4 o e |  1 o e 2 o e 3 o e 4 o e | 1 o e 2 o e 3 o e 4 o e |
Not one can even              stand all                alone_

M69 C           D             G                         Am                        G         Am
e|--------------------------|-------------------------|-------------------------|-------------------------|
B|--------------------------|-------------------------|-------------------------|-------------------------|
G|--5-----------7-----------|-------------------------|-------------------------|-5-----7-----------------|
D|--5-----------7-----------|-5-----------------------|-------7-----5---7-------|-------------5---7-------|
A|--3-----------5-----------|-5-----------------------|-0---0-----0-------0---0-|-----0-----0-------0---0-|
E|--------------------------|-3-----------------------|-------------------------|-------------------------|
    1 o e 2 o e 3 o e 4 o e | 1 o e 2 o e 3 o e 4 o e | 1 o e 2 o e 3 o e 4 o e | 1 o e 2 o e 3 o e 4 o e |
  Just a rag tag army at its best

M73 D                         F                          G                         F           G     E
e|--------------------------|-------------------------|--------------------------|-------------------------|
B|--------------------------|-------------------------|--------------------------|-------------------------|
G|--7-----------------------|-------------------------|--------------------------|-------------------------|
D|--7-----------------------|-3-----------------------|--5-----------------------|-------------------9-----|
A|--5-----------------------|-3-----------------------|--5-----------------------|-3-----3-----5-----7-----|
E|--------------------------|-1-----------------------|--3---3-3---3-3---3-3---3-|-1---1-1---1-3---3-------|
    1 o e 2 o e 3 o e 4 o e | 1 o e 2 o e 3 o e 4 o e |  1 o e 2 o e 3 o e 4 o e | 1 o e 2 o e 3 o e 4 o e |
We sometimes even             fail the smallest        test_


M77 D#                Bb                D#                Bb      F   A
e|------------------|-----------------|-----------------|-----------------|
B|------------------|-----------------|-----------------|-----------------|
G|--8---------------|-----------------|-8---------------|-----------------|
D|--8---------------|-8---------------|-8---------------|-8-------3---7---|
A|--6---------------|-8---------------|-6---------------|-8-------3---7---|
E|------------------|-6---------------|-----------------|-6-------1---5---|
    1 + 2 + 3 + 4 + | 1 + 2 + 3 + 4 + | 1 + 2 + 3 + 4 + | 1 + 2 + 3 + 4 + |
     But through this tribulation       There comes a transformation

M81 C                 G       A         B                F#   A   B   C#
e|------------------|-----------------|-----------------|-----------------|
B|------------------|-----------------|-----------------|-----------------|
G|--5---------------|---------2-------|-4---------------|-----2---4---6---|
D|--5---------------|-5-------2-------|-4---------------|-4---2---4---6---|
A|--3---------------|-5-------0-------|-2---------------|-4---0---2---4---|
E|------------------|-3---------------|-----------------|-2---------------|
    1 + 2 + 3 + 4 + | 1 + 2 + 3 + 4 + | 1 + 2 + 3 + 4 + | 1 + 2 + 3 + 4 + |
         We don the   armor of our King

[Chorus]
M85 D                         D         E                A           G#            F#          E  
e|--------------------------|-------------------------|--------------------------|-------------------------|
B|--------------------------|-------------------------|--------------------------|-------------------------|
G|--------------------------|-------------------------|--------------------------|-------------------------|
D|--7-----7-----7-----7-----|-7-----7---9-------------|--7-----7-----6-----6-----|-4-----4-----------------|
A|--5---5-5-5-5-5---5-5-5-5-|-5---5-5-5-7-----7-7---7-|--7-----7-----6-----6-----|-4-----4-----2-----2-----|
E|--------------------------|-------------------------|--5---5-5---5-4---4-4---4-|-2---2-2---2-0---0-0---0-|
    1 o e 2 o e 3 o e 4 o e | 1 o e 2 o e 3 o e 4 o e |  1 o e 2 o e 3 o e 4 o e | 1 o e 2 o e 3 o e 4 o e |
    Armed       and           dangerous                         Gods   ene------mies     will scatter

M89 D                         D         E                D                         E           B    C#
e|--------------------------|-------------------------|--------------------------|-------------------------|
B|--------------------------|-------------------------|--------------------------|-------------------------|
G|--------------------------|-------------------------|--------------------------|-------------------------|
D|--7-----7-----7-----7-----|-7-----7---9-------------|--7-----------7-----------|-9-----------------------|
A|--5---5-5-5-5-5---5-5-5-5-|-5---5-5-5-7-----7-7---7-|--5-----5-5-5-5-----5-5-5-|-7-----7-7-7-9----11-----|
E|--------------------------|-------------------------|--------------------------|-------------7-----9-----|
    1 o e 2 o e 3 o e 4 o e | 1 o e 2 o e 3 o e 4 o e |  1 o e 2 o e 3 o e 4 o e | 1 o e 2 o e 3 o e 4 o e |
    Armed       and           dangerous                         We'll see the      darkness    shatter

M93 F#                        E                          F#                        F#    A     B     C#
e|--------------------------|-------------------------|--------------------------|-------------------------|
B|--------------------------|-------------------------|--------------------------|-------------------------|
G|--------------------------|-------------------------|--------------------------|-------------------------|
D|--------------------------|-------------------------|--------------------------|-------2-----4-----6-----|
A|--4-----4-----------4-----|-2-----2-----------2-----|--4-----4-----------4-----|-4-----0-----2-----4-----|
E|--2-----2-2-2-2-2-2-2-----|-0-----0-0-0-0-0-0-0-----|--2-----2-2-2-2-2-2-2-----|-2-----------------------|
    1 o e 2 o e 3 o e 4 o e | 1 o e 2 o e 3 o e 4 o e |  1 o e 2 o e 3 o e 4 o e | 1 o e 2 o e 3 o e 4 o e |
          His armor   is      worth its   weight               No weapon can       penetrate


M97 D                         D         E                F                         G
e|--------------------------|-------------------------|--------------------------|-------------------------|
B|--------------------------|-------------------------|--------------------------|-------------------------|
G|--------------------------|-------------------------|--------------------------|-------------------------|
D|--7-----7-----7-----7-----|-7-----7---9-------------|--3-----------------------|-5-----------------------|
A|--5---5-5-5-5-5---5-5-5-5-|-5---5-5-5-7-----7-7---7-|--3-----------------------|-5-----------------------|
E|--------------------------|-------------------------|--1-----------------------|-3-----------------------|
    1 o e 2 o e 3 o e 4 o e | 1 o e 2 o e 3 o e 4 o e |  1 o e 2 o e 3 o e 4 o e | 1 o e 2 o e 3 o e 4 o e |
    Armed       and           dangerous                        We're ready to            storm the gate 


M101 Am                       Em          D 
e|--------------------------|-------------------------|
B|--------------------------|-------------------------|
G|--------------------------|-5-----------------------|
D|--7---------7-------------|-----5-------------------|
A|--7---------7-------------|---------7---8-----------|
E|--5---5-5---5-------------|-------------------------|
    1 o e 2 o e 3 o e 4 o e | 1 o e 2 o e 3 o e 4 o e |


[Bridge]
M103 Bb                F       G          D#               Bb       F
e|------------------|-----------------|------------------|-----------------|
B|------------------|-----------------|-[4]--------------|--------[6]------|
G|-[3]--------------|-----------------|------------------|[3]--------------|
D|------------------|[3]-----[5]------|--8---------------|-----------------|
A|--8---------------|-3-------5-------|--6---------------|-8-------3-------|
E|--6---------------|-1-------3-------|------------------|-6-------1-------|
    1 + 2 + 3 + 4 + | 1 + 2 + 3 + 4 + |  1 + 2 + 3 + 4 + | 1 + 2 + 3 + 4 + |
    Stand!       up   against the flood   Stand! Covered by his blood

M107 C#                D#      G#         A#               C#       D#
e|-------------------|-----------------|------------------|-----------------|
B|--[2]--------------|[4]--------------|------------------|-----------------|
G|-------------------|--------[1]------|-[3]--------------|-----------------|
D|---6---------------|-8---------------|------------------|-6-------8-------|
A|---4---------------|-6-------6-------|--8---------------|-4-------6-------|
E|-------------------|---------4-------|--6---------------|-----------------|
     1 + 2 + 3 + 4 + | 1 + 2 + 3 + 4 + |  1 + 2 + 3 + 4 + | 1 + 2 + 3 + 4 + |
         We are the standard he has raised

M111 Bb                F       G          D#               Bb       F
e|-------------------|-----------------|------------------|-----------------|
B|-------------------|-----------------|-[4]--------------|--------[6]------|
G|--[3]--------------|-----------------|------------------|[3]--------------|
D|-------------------|[3]-----[5]------|--8---------------|-----------------|
A|---8---------------|-3-------5-------|--6---------------|-8-------3-------|
E|---6---------------|-1-------3-------|------------------|-6-------1-------|
     1 + 2 + 3 + 4 + | 1 + 2 + 3 + 4 + |  1 + 2 + 3 + 4 + | 1 + 2 + 3 + 4 + |
    Stand!       Earnestly contend        Stand!     To the very end

M115 C                 B       G          A                B        
e|-------------------|-----------------|------------------|-----------------|
B|-------------------|-----------------|------------------|-----------------|
G|--[5]--------------|[4]--------------|-[7]--------------|-----------------|
D|---5---------------|-4------[5]------|------------------|-----------------|
A|---3---------------|-2-------5-------|--7---------------|-9---------------|
E|-------------------|---------3-------|--5---------------|-7---------------|
     1 + 2 + 3 + 4 + | 1 + 2 + 3 + 4 + |  1 + 2 + 3 + 4 + | 1 + 2 + 3 + 4 + |
    We've only         just begun to      fight

[Keyboardsolo]
[4x]
M119 B                 
e|---------------------------|
B|---------------------------|
G|---------------------------|
D|---4-4-4-4-4-4-4-4-4-4-4-4-|
A|---2-2-2-2-2-2-2-2-2-2-2-2-|
E|---------------------------|
     1 + e 2 + e 3 + e 4 + e | 

[Guitarsolo]
M123 F#          
e|----------------------------|--------------------------|
B|----------------------------|--------------------------|
G|---6b----------4p2-------2--|--------------------------|
D|-------------------4-2h4----|-4-2---------------4------|
A|----------------------------|-----4-4-3-2-4-2-4--------|
E|----------------------------|--------------------------|
     1 o e 2 o e 3 o e 4 o e  | 1 o e 2 o e 3 o e 4 o e  | 

M125 F#          
e|----------------------------|--------------------------|
B|-----------2----------------|--------------------------|
G|-------2-------4p2----------|-2---2--------------------|
D|---4---------------4--------|---4---4-2---2---2--------|
A|----------------------------|-----------4---4---4p2----|
E|----------------------------|-----------------------5--|
     1 o e 2 o e 3 o e 4 o e  | 1 o e 2 o e 3 o e 4 o e  |

[Chorus]
M127      D                         D   E                A           G#            F#          E  
e|--------------------------|-------------------------|--------------------------|-------------------------|
B|--------------------------|-------------------------|--------------------------|-------------------------|
G|--------------------------|-------------------------|--------------------------|-------------------------|
D|--------7-----------7-----|-------7---9-------------|--7-----7-----6-----6-----|-4-----4-----------------|
A|--------5-----------5-----|-------5---7-------------|--7-----7-----6-----6-----|-4-----4-----2-----2-----|
E|--------------------------|-------------------------|--5---5-5---5-4---4-4---4-|-2---2-2---2-0---0-0---0-|
    1 o e 2 o e 3 o e 4 o e | 1 o e 2 o e 3 o e 4 o e |  1 o e 2 o e 3 o e 4 o e | 1 o e 2 o e 3 o e 4 o e |
    Armed       and           dangerous                         Gods   ene------mies     will scatter

M131D                         D         E                D                         E           B    C#
e|--------------------------|-------------------------|--------------------------|-------------------------|
B|--------------------------|-------------------------|--------------------------|-------------------------|
G|--------------------------|-------------------------|--------------------------|-------------------------|
D|--7-----7-----7-----7-----|-7-----7---9-------------|--7-----------7-----------|-9-----------------------|
A|--5---5-5-5-5-5---5-5-5-5-|-5---5-5-5-7-----7-7---7-|--5-----5-5-5-5-----5-5-5-|-7-----7-7-7-9----11-----|
E|--------------------------|-------------------------|--------------------------|-------------7-----9-----|
    1 o e 2 o e 3 o e 4 o e | 1 o e 2 o e 3 o e 4 o e |  1 o e 2 o e 3 o e 4 o e | 1 o e 2 o e 3 o e 4 o e |
    Armed       and           dangerous                         We'll see the      darkness    shatter

M135F#                        E                          F#                        F#    A     B     C#
e|--------------------------|-------------------------|--------------------------|-------------------------|
B|--------------------------|-------------------------|--------------------------|-------------------------|
G|--------------------------|-------------------------|--------------------------|-------------------------|
D|--------------------------|-------------------------|--------------------------|-------2-----4-----6-----|
A|--4-----4-----------4-----|-2-----2-----------2-----|--4-----4-----------4-----|-4-----0-----2-----4-----|
E|--2-----2-2-2-2-2-2-2-----|-0-----0-0-0-0-0-0-0-----|--2-----2-2-2-2-2-2-2-----|-2-----------------------|
    1 o e 2 o e 3 o e 4 o e | 1 o e 2 o e 3 o e 4 o e |  1 o e 2 o e 3 o e 4 o e | 1 o e 2 o e 3 o e 4 o e |
          His armor   is      worth its   weight               No weapon can       penetrate


M139 D                         D         E                F                         G
e|--------------------------|-------------------------|--------------------------|-------------------------|
B|--------------------------|-------------------------|--------------------------|-------------------------|
G|--------------------------|-------------------------|--------------------------|-------------------------|
D|--7-----7-----7-----7-----|-7-----7---9-------------|--3-----------------------|-5-----------------------|
A|--5---5-5-5-5-5---5-5-5-5-|-5---5-5-5-7-----7-7---7-|--3-----------------------|-5-----------------------|
E|--------------------------|-------------------------|--1-----------------------|-3-----------------------|
    1 o e 2 o e 3 o e 4 o e | 1 o e 2 o e 3 o e 4 o e |  1 o e 2 o e 3 o e 4 o e | 1 o e 2 o e 3 o e 4 o e |
    Armed       and           dangerous                        We're ready to            storm the gate 

M143 Am                        Em          D             F                         G
e|--------------------------|-------------------------|--------------------------|-------------------------|
B|--------------------------|-------------------------|--------------------------|-------------------------|
G|--------------------------|-4-----------------------|--------------------------|-------------------------|
D|--7---------7-------------|-----5-------7---4-------|--3-----------------------|-5-----------------------|
A|--7---------7-------------|---------7-----------5---|--3-----------------------|-5-----------------------|
E|--5---5-5---5-------------|-------------------------|--1-----------------------|-3-----------------------|
    1 o e 2 o e 3 o e 4 o e | 1 o e 2 o e 3 o e 4 o e |  1 o e 2 o e 3 o e 4 o e | 1 o e 2 o e 3 o e 4 o e |
                                                                                         storm the gate 

M147 Am                        Em          D             G         Am
e|--------------------------|-------------------------|--------------------------|
B|--------------------------|-------------------------|--------------------------|
G|--------------------------|-4-----------------------|--------------------------|
D|--7---------7-------------|-----5-------7---4-------|--5---------7-------------|
A|--7---------7-------------|---------7---------5-----|--5---------7-------------|
E|--5---5-5---5-------------|-------------------------|--3---------5-------------|
    1 o e 2 o e 3 o e 4 o e | 1 o e 2 o e 3 o e 4 o e |  1 o e 2 o e 3 o e 4 o e |


*********************
h - hammer-on
p - pull-off
b - bending
[2] - Play solo
/ - Slide up
*********************

            
            
Suggest correction
Creating personal tab
Creating personal tab
You can edit any tab online and save it as your Personal.

You can edit, replace or remove any tab part or add personal notes – all changes will be seen only by you.

Personal tabs can be accessed anytime from any device, even offline.
Learn more »
Give kudos to tab author, rate the tab!
1 2 3 4 5
comments
print report bad tab
guest
You may want to rate the tab now too:
select rating
Wanna post a correction for this tab? Suggest correction