Oops, an error
Loading. Please wait.

Jekyll And Hyde Tab

version 2
version 2

Whole song

by Petra
4,893 views 12 this week
3 commentsread comments
1 2 3 4 5
x 3
add to favorites
launch autoscroll
font size
0
reset
how to read this tab
guitar tuner
Autoscroll
slow
fast
+/-
esc
set tempo
stop
Difficulty
intermediate
(Gtr 1)
e|-----------------------------------------|-----------------------------------------|
B|-----------------------------------------|-----------------------------------------|
G|.----------------------------------------|----------------------------------------.|
D|.-0---0---3---0-2-----0-0-*--------------|--0---0---3---0-2-----0-0-*-------------.|
A|--0---0---3---0-2-----0-0-*--------------|--0---0---3---0-2-----0-0-*--------------|
E|-----------------------------------------|-----------------------------------------|
    1   +   2   + a (3) e + a                 1       2   + a (3) e + a

e|-----------------------------------------|-----------------------------------------|
B|-----------------------------------------|-----------------------------------------|
G|.----------------------------------------|----------------------------------------.|
D|.-0---0---3---0-2-----0-0-*--------------|--0---0---3---0-2-----0-0-*-------------.|
A|--0---0---3---0-2-----0-0-*--------------|--0---0---3---0-2-----0-0-*--------------|
E|--0---0---3---0-2-----0-0-*--------------|--0---0---3---0-2-----0-0-*--------------|
    1   +   2   + a (3) e + a                 1       2   + a (3) e + a

                                                                                      (x3)
e|-----------------------------------------|-----------------------------------------|
B|-----------------------------------------|-----------------------------------------|
G|.----------------------------------------|----------------------------------------.|
D|.-0---0---3---0-2-----0-0-*--------------|--0---0---3---0-2-----0-0-*-------------.|
A|--0---0---3---0-2-----0-0-*--------------|--0---0---3---0-2-----0-0-*--------------|
E|--0---0---3---0-2-----0-0-*--0---0-------|--0---0---3---0-2-----0-0-*--------------|
                              PM--->
    1   +   2   + a (3) e + a                 1       2   + a (3) e + a

e|-----------------------------------------|-----------------------------------------|
B|-----------------------------------------|-----------------------------------------|
G|-----------------------------------------|-----------------------------------------|
D|--0---0---3---0-2-----0-0-*--------------|--0---0---3---0-2-----0-0-*----0----2----|
A|--0---0---3---0-2-----0-0-*--------------|--0---0---3---0-2-----0-0-*----0----2----|
E|--0---0---3---0-2-----0-0-*--0---0-------|--0---0---3---0-2-----0-0-*----0----2----|
                              PM--->
    1   +   2   + a (3) e + a  4   +          1       2   + a (3) e + a    4    +

e|-----------------------------------------|-----------------------------------------|
B|-----------------------------------------|-----------------------------------------|
G|-5----------------5----------------------|-8-------------8-------------------------|
D|-3----------------5----------------------|-8-------------8--8----------------------|
A|------------------3----------------------|-6-------------6--8----------------------|
E|-----------------------------------------|------------------8----------------------|
   1               3                        1             a  3

e|-----------------------------------------|-----------------------------------------|
B|-----------------------------------------|-----------------------------------------|
G|-----------------------------------------|-------------------5---------------------|
D|--3--------------------------------------|-2-----------------5---------------------|
A|--3--------------------------------------|-3-----------------3---------------------|
E|--3--------------------------------------|-2---------------------------------------|
    1                                        1                 3

                                                                        /\/\
e|-----------------------------------------|-------------------------------------------|
B|-----------------------------------------|-------------------------------------------|
G|---------------------------5-/-(7)-------|-----------------------5---7---------------|
D|-0-------------------------5-/-(7)-------|-----------------------5---7---------------|
A|-0-------------------------3-/-(5)-------|-------------------------------------------|
E|-0-0-0-0-3-2-0-0-----0-0-0---------------|-0-0-0-0-3-2-0-0-----0---------------------|
  PM----------------------->                PM----------------------------------------|
   1 e + a 2 e + a (3) e + a 4    +          1 e + a 2 e + a (3) e +   4

e|-----------------------------------------|-----------------------------------------|
B|-----------------------------------------|-----------------------------------------|
G|-----------------------------------------|-------------------5---------------------|
D|--3----------------3---------------------|-2-----------------5---------------------|
A|--3----------------3---------------------|-2-----------------3---------------------|
E|--3----------------3---------------------|-2---------------------------------------|
    1                3                       1                 3

e|-----------------------------------------|-----------------------------------------|
B|-----------------------------------------|-----------------------------------------|
G|-----------------------------------------|-----------------------------------------|
D|-0---0---*-------------------------------|-0---0---*-------------------------------|
A|-0---0---*-------------------------------|-0---0---*-------------------------------|
E|-0---0---*-------------------------------|-0---0---*-------------------------------|
   1   +   2                                 1   +   2

e|-----------------------------------------|-----------------------------------------|
B|-----------------------------------------|-----------------------------------------|
G|-----------------------------------------|-----------------------------------------|
D|--0---0---3---0-2-----0-0-*--------------|--0---0---3---0-2-----0-0-*--------------|
A|--0---0---3---0-2-----0-0-*--------------|--0---0---3---0-2-----0-0-*--------------|
E|--0---0---3---0-2-----0-0-*--0---0-------|--0---0---3---0-2-----0-0-*--------------|
                              PM--->
    1   +   2   + a (3) e + a                 1       2   + a (3) e + a

e|-----------------------------------------|-----------------------------------------|
B|-----------------------------------------|-----------------------------------------|
G|-----------------------------------------|--------------------------------5--------|
D|--0---0---3---0-2-----0-0-*--------------|--0---0---3---0-2-----0-0-*-----5--------|
A|--0---0---3---0-2-----0-0-*--------------|--0---0---3---0-2-----0-0-*-----3--------|
E|--0---0---3---0-2-----0-0-*--0---0-------|--0---0---3---0-2-----0-0-*--------------|
                              PM--->
    1   +   2   + a (3) e + a                 1       2   + a (3) e + a     4

e|-----------------------------------------|-----------------------------------------|
B|-----------------------------------------|-----------------------------------------|
G|-----------------------------------------|-----------------------------------------|
D|--0---0---3---0-2-----0-0-*--------------|--0---0---3---0-2-----0-0-*--------------|
A|--0---0---3---0-2-----0-0-*--------------|--0---0---3---0-2-----0-0-*--------------|
E|--0---0---3---0-2-----0-0-*--0---0-------|--0---0---3---0-2-----0-0-*--------------|
                              PM--->
    1   +   2   + a (3) e + a                 1       2   + a (3) e + a

e|-----------------------------------------|-----------------------------------------|
B|-----------------------------------------|-----------------------------------------|
G|-----------------------------------------|-----------------------------------------|
D|--0---0---3---0-2-----0-0-*--------------|--0---0---3---0-2-----0-0-*----0----2----|
A|--0---0---3---0-2-----0-0-*--------------|--0---0---3---0-2-----0-0-*----0----2----|
E|--0---0---3---0-2-----0-0-*--0---0-------|--0---0---3---0-2-----0-0-*----0----2----|
                              PM--->
    1   +   2   + a (3) e + a  4   +          1       2   + a (3) e + a    4    +

e|-----------------------------------------|-----------------------------------------|
B|-----------------------------------------|-----------------------------------------|
G|-5------5-5-------5----------------------|-8-----8-8-------------------------------|
D|-3------3-3-------5----------------------|-8-----8-8--------8----------------------|
A|------------------3----------------------|-6-----6-6--------8----------------------|
E|-----------------------------------------|------------------8----------------------|
   1     a 2       3                        1     a 2        3

e|-----------------------------------------|-----------------------------------------|
B|-----------------------------------------|-----------------------------------------|
G|-----------------------------------------|-------------------5---------------------|
D|--3--------------------------------------|-2-----------------5---------------------|
A|--3--------------------------------------|-3-----------------3---------------------|
E|--3--------------------------------------|-2---------------------------------------|
    1                                        1                 3

                                                                        /\/\
|-----------------------------------------|-------------------------------------------|
|-----------------------------------------|-------------------------------------------|
|---------------------------5-/-(7)-------|-----------------------5---7---------------|
|-0-------------------------5-/-(7)-------|-----------------------5---7---------------|
|-0-------------------------3-/-(5)-------|-------------------------------------------|
|-0-0-0-0-3-2-0-0-----0-0-0---------------|-0-0-0-0-3-2-0-0-----0---------------------|
  PM----------------------->                PM----------------------------------------|
  1 e + a 2 e + a (3) e + a 4    +          1 e + a 2 e + a (3) e +   4

e|-----------------------------------------|-----------------------------------------|
B|-----------------------------------------|-----------------------------------------|
G|-----------------------------------------|-----------------------------------------|
D|--3--------------------------------------|-2-----------------5---------------------|
A|--3--------------------------------------|-2-----------------5---------------------|
E|--3--------------------------------------|-2-----------------5---------------------|
    1                                        1                 3

                                                                        /\/\
e|-----------------------------------------|-------------------------------------------|
B|-----------------------------------------|-------------------------------------------|
G|---------------------------5-/-(7)-------|-----------------------5---7---------------|
D|-0-------------------------5-/-(7)-------|-----------------------5---7---------------|
A|-0-------------------------3-/-(5)-------|-------------------------------------------|
E|-0-0-0-0-3-2-0-0-----0-0-0---------------|-0-0-0-0-3-2-0-0-----0---------------------|
  PM----------------------->                PM----------------------------------------|
   1 e + a 2 e + a (3) e + a 4    +          1 e + a 2 e + a (3) e +   4

e|-----------------------------------------|-----------------------------------------|
B|-----------------------------------------|-----------------------------------------|
G|-----------------------------------------|-------------------5---------------------|
D|--3--------------------------------------|-2-----------------5---------------------|
A|--3--------------------------------------|-3-----------------3---------------------|
E|--3--------------------------------------|-2---------------------------------------|
    1                                        1                 3

                                                                        /\/\
e|-----------------------------------------|-------------------------------------------|
B|-----------------------------------------|-------------------------------------------|
G|---------------------------5-/-(7)-------|-----------------------5---7---------------|
D|-0-------------------------5-/-(7)-------|-----------------------5---7---------------|
A|-0-------------------------3-/-(5)-------|-------------------------------------------|
E|-0-0-0-0-3-2-0-0-----0-0-0---------------|-0-0-0-0-3-2-0-0-----0---------------------|
  PM----------------------->                PM----------------------------------------|
   1 e + a 2 e + a (3) e + a 4    +          1 e + a 2 e + a (3) e +   4

e|-----------------------------------------|-----------------------------------------|
B|-----------------------------------------|-----------------------------------------|
G|-----------------------------------------|-----------------------------------------|
D|--3--------------------------------------|-2-----------------1---------------------|
A|--3--------------------------------------|-3-----------------1---------------------|
E|--3--------------------------------------|-2-----------------1---------------------|
    1                                        1                 3

e|-----------------------------------------|-----------------------------------------|
B|-----------------------------------------|-----------------------------------------|
G|-----------------------------------------|-----------------------------------------|
D|-0---------------------------------------|-(0)-------------------------------------|
A|-0---------------------------------------|-(0)-------------------------12-\--------|
E|-0---------------------------------------|-(0)-------------------------12-\--------|
   1                                                                     4

e|-----------------------------------------|-----------------------------------------|
B|-----------------------------------------|-----------------------------------------|
G|-----3-----------3-\-(2)-----------------|-----------------------------------------|
D|-----3-----------3-\-(2)------0----------|-------3---------5-----------------------|
A|------------------------------0----------|-------3---------5-----------------------|
E|-0-------0---0------------3---0----------|-------3---------5-----------------------|
          PM--->
   1   +   2   +   3    +   4   +             (1)  +   (2)   +

e|-----------------------------------------|-----------------------------------------|
B|-----------------------------------------|-----------------------------------------|
G|-----3-----------3-\-(2)-----------------|-----------------------------------------|
D|-----3-----------3-\-(2)------0----------|-(0)-------------------------------------|
A|------------------------------0----------|-(0)-------------------------------------|
E|-0-------0---0------------3---0----------|-(0)-------------------------------------|
          PM--->
   1   +   2   +   3    +   4   +            (1)

e|-----------------------------------------|-----------------------------------------|
B|-----------------------------------------|-----------------------------------------|
G|-----3-----------3-\-(2)-----------------|-----------------------------------------|
D|-----3-----------3-\-(2)------0----------|-------3---------5-----------------------|
A|------------------------------0----------|-------3---------5-----------------------|
E|-0-------0---0------------3---0----------|-------3---------5-----------------------|
          PM--->
   1   +   2   +   3    +   4   +             (1)  +   (2)   +

e|-----------------------------------------|-----------------------------------------|
B|-----------------------------------------|-----------------------------------------|
G|-----3-----------3-\-(2)-----------------|-5---5---5---5---5---5---5-6-------------|
D|-----3-----------3-\-(2)-----------------|-5---5---5---5---5---5---5-6-------------|
A|-----------------------------------------|-3---3---3---3---3---3---3-4-------------|
E|-0-------0---0------------3---0----------|-----------------------------------------|
          PM--->
   1   +   2   +   3    +   4   +            1   +   2   +   3   +   4 e

e|------------------------------------------|-----------------------------------------|
B|------------------------------------------|-----------------------------------------|
G|.-----------------------------------------|----------------------------------------.|
D|.-0------------0-0-*--------------0-0-----|-3-----------3---5---------5------------.|
A|--0------------0-0-*--------------0-0-----|-3-----------3---5---------5-------------|
E|--0------------0-0-*--------------0-0-----|-3-----------3---5---------5-------------|
    1            + a 3              + a       1           +   3         4

e|-----------------------------------------|-----------------------------------------|
B|-----------------------------------------|-----------------------------------------|
G|-----------------------------------------|-----------------------------------------|
D|-*---------------------------------------|-----------------------------------------|
A|-*---------------------------------------|-----------------------------------------|
E|-*---------------------------------------|-----------------------------------------|
   1

                                                                        /\/\
e|-----------------------------------------|-------------------------------------------|
B|-----------------------------------------|-------------------------------------------|
G|---------------------------5-/-(7)-------|-----------------------5---7---------------|
D|-0-------------------------5-/-(7)-------|-----------------------5---7---------------|
A|-0-------------------------3-/-(5)-------|-------------------------------------------|
E|-0-0-0-0-3-2-0-0-----0-0-0---------------|-0-0-0-0-3-2-0-0-----0---------------------|
  PM----------------------->                PM----------------------------------------|
  1 e + a 2 e + a (3) e + a 4    +          1 e + a 2 e + a (3) e +   4

e|-----------------------------------------|-----------------------------------------|
B|-----------------------------------------|-----------------------------------------|
G|-----------------------------------------|-----------------------------------------|
D|-*---------------------------------------|-----------------------------------------|
A|-*---------------------------------------|-----------------------------------------|
E|-----------------------------------------|-----------------------------------------|
   1

                                                                        /\/\
e|-----------------------------------------|-------------------------------------------|
B|-----------------------------------------|-------------------------------------------|
G|---------------------------5-/-(7)-------|-----------------------5---7---------------|
D|-0-------------------------5-/-(7)-------|-----------------------5---7---------------|
A|-0-------------------------3-/-(5)-------|-------------------------------------------|
E|-0-0-0-0-3-2-0-0-----0-0-0---------------|-0-0-0-0-3-2-0-0-----0---------------------|
  PM----------------------->                PM----------------------------------------|
  1 e + a 2 e + a (3) e + a 4    +          1 e + a 2 e + a (3) e +   4

e|-----------------------------------------|-----------------------------------------|
B|-----------------------------------------|-----------------------------------------|
G|-----------------------------------------|-------------------5---------------------|
D|--3--------------------------------------|-2-----------------5---------------------|
A|--3--------------------------------------|-3-----------------3---------------------|
E|--3--------------------------------------|-2---------------------------------------|
    1                                        1                 3

e|-----------------------------------------|-------------------------------------------|
B|-----------------------------------------|-------------------------------------------|
G|---------------------------5-/-(7)-------|-------------------------------------------|
D|-0-------------------------5-/-(7)-------|-------------------------------------------|
A|-0-------------------------3-/-(5)-------|-------------------------------------------|
E|-0-0-0-0-3-2-0-0-----0-0-0---------------|-0-0-0-0-3-2-0-0------0-----0-2------------|
   PM----------------------->                PM----------------------------------------|
   1 e + a 2 e + a (3) e + a 4    +          1 e + a 2 e + a (3)  + (4) e +

e|-----------------------------------------|-----------------------------------------|
B|-----------------------------------------|-----------------------------------------|
G|-----------------------------------------|-----------------------------------------|
D|--3--------------------------------------|-2-----------------1---------------------|
A|--3--------------------------------------|-3-----------------1---------------------|
E|--3--------------------------------------|-2-----------------1---------------------|
    1                                        1                 3

e|-----------------------------------------|-----------------------------------------|
B|-----------------------------------------|-----------------------------------------|
G|-----------------------------------------|-----------------------------------------|
D|-0----*----------------------------------|--0---0---3---0-2-----0-0-*-----x-x-x----|
A|-0----*----------------------------------|--0---0---3---0-2-----0-0-*-----x-x-x----|
E|-0----*----------------------------------|--0---0---3---0-2-----0-0-*-----x-x-x----|
   1    +                                     1   +   2   + a (3) e + a     4 e +

e|-----------------------------------------|-----------------------------------------|
B|-----------------------------------------|-----------------------------------------|
G|-----------------------------------------|-----------------------------------------|
D|-0----0-*--------------------------------|--0---0---3---0-2-----0-0-*-----5--------|
A|-0----0-*--------------------------------|--0---0---3---0-2-----0-0-*--------------|
E|-0----0-*--------------------------------|--0---0---3---0-2-----0-0-*--------------|
   1    + a                                   1   +   2   + a (3) e + a     4

e|-----------------------------------------|-----------------------------------------|
B|-----------------------------------------|-----------------------------------------|
G|-----------------------------------------|---------------------------------5-------|
D|-0----0-*--------------------------------|--0---0---3---0-2-----0-0-*------5-------|
A|-0----0-*--------------------------------|--0---0---3---0-2-----0-0-*--------------|
E|-0----0-*--------------------------------|--0---0---3---0-2-----0-0-*--------------|
   1    + a                                   1   +   2   + a (3) e + a      4

e|-----------------------------------------|-----------------------------------------|
B|-----------------------------------------|-----------------------------------------|
G|-----------------------------------------|-----------------------------------------|
D|-0----0-*---------------------------0----|--0---0-3-----0-2-----0-0------3---5-----|
A|-0----0-*---------------------------0----|--0---0-3-----0-2-----0-0------3---5-----|
E|-0----0-*---------------------------0----|--0---0-3-----0-2-----0-0------3---5-----|
   1    + a                           a       1   + a (2) e +     3 e      4   +

e|-----------------------------------------|
B|-----------------------------------------|
G|-----------------------------------------|
D|-0----0-*--------------------------------|
A|-0----0-*--------------------------------|
E|-0----0-*--------------------------------|
   1    + a


************************************

| *    Natural harmonic
| >    Accented note
| (n)  Ghost note
| /    Slide up
| \    Slide down
| x    Dead note

************************************
Suggest correction
Give kudos to tab author, rate the tab!
1 2 3 4 5
comments
print report bad tab
3 comments total.
0 reply
Aceroth 76 Mar 26, 2007 04:32 AM

That legend is entirely too long and almost completely unnecessary. There are only two or three things in there that actually might need to be addressed. The tab was good though, I give it 4 stars overall. That little bit at the bottom might be helpful too (though I haven't tried it yet). You should also try to control your flaming ego a little better. Cheers.

0 reply
JESUSFREA343 1,741 Aug 17, 2015 03:56 PM

Wow, S. Hammon, glad to know you're a better guitarist than the rest of us.

"Pride goeth before destruction, and an haughty spirit before a fall."

-Proverbs 16:18

guest
You may want to rate the tab now too:
select rating
Wanna post a correction for this tab? Suggest correction