Oops, an error
Loading. Please wait.

Judas Kiss Tab

version 1
version 1

Whole song

5,697 views 3 this week
1 commentread comment
1 2 3 4 5
x 3
add to favorites
launch autoscroll
font size
0
reset
how to read this tab
guitar tuner
Autoscroll
slow
fast
+/-
esc
set tempo
stop
Help us to improve Ultimate-Guitar.com Take our survey!
×
Author
Difficulty
novice
Main Riff:
E----------------------6-3-|
A------------------5-3-----|
D--------0---0h3-----------|
G-0-3-0----0-----0---------|
B--------------------------|
e--------------------------|

E--------------------------|
A--------------------------|
D--------0---0h3-----------|
G-0-3-0----0-----3-0-------|
B--------------------------|
e--------------------------|
 Verse:
G G G G G G G G F(slide)F#(slide)G [x4]
Chorus:
C C C C C C C C Bb Bb Bb F F F(slide)G Bb G [x2]
C C C C C C C C C C C C C C C C D D D D C Bb Bb Bb(slide)C C
Suggest correction
Give kudos to tab author, rate the tab!
1 2 3 4 5
comments
print report bad tab
1 comment total.
+1 reply
GuitaristWW2077 10 Jun 18, 2009 06:56 PM

you wrote the
string names backwards so making it unreadable

guest
You may want to rate the tab now too:
select rating
Wanna post a correction for this tab? Suggest correction