Oops, an error
Loading. Please wait.

Life As We Know It Tab

version 2
version 2

Whole song

719 views 1 this week
no commentswrite comment
1 2 3 4 5
excellent!
x 1
add to favorites
launch autoscroll
font size
0
reset
how to read this tab
guitar tuner
Tab Pro tools
  • play this tab
  • loop segment
  • change instrument
  • show fretboard
  • metronome
Autoscroll
slow
fast
+/-
esc
set tempo
stop
Contributor
-----------------------------------------------------------------------------
                      Life as we know it - Petra
-----------------------------------------------------------------------------
Tabbed by: Max Andersen
Email: deckrider@hotmail.com 

Tuning: regular E

riff 1
e|-------------------------------------------------------------------------|
B|-------------------------------------------------------------------------|
G|-----4---4-----4---------------------------------------------------------|
D|---2-------2-----2-----4---4-----4-------6---6-----6-------7---4-----4---|
A|---------------------2-------2-----2---4-------4-----4---4-------2-----2-|
E|-0-----0-----0-----0-----0-----0-----0-----0-----0-----0-----0-----0-----|

riff 2
e|----------------------------------|
B|----------------------------------|
G|-7-7-9x--7-7-----7-7-9x--7-7------|
D|-7-7-9x--7-7-7x--7-7-9x--7-7-7----|
A|-5-5-7x--5-5-7x--5-5-7x--5-5-7----|
E|-5-5-7x--5-5-5x--5-5-7x--5-5-5--4-|

riff 3
e|-------------------------------------------------------------------------|
B|-------------------------------------------------------------------------|
G|o-------7--7--------4--4---------7--7--------------------7--7-4-4-4-6--6-|
D|o-4-4-4-7--7--2-2-2-4--4--4-4-xx-7--7-7-7----------4-4-4-7--7-4-4-4-6--6-|
A|--4-4-4-5--5--2-2-2-2--2--4-4-xx-5--5-7-7----------4-4-4-5--5-2-2-2-4--4-|
E|--2-2-2-5--5--0-0-0-2--2--2-2-xx-5--5-5-5-4-5p4-2--2-2-2-5--5-2-2-2-4--4-|

riff 4
e|--------------------------|
B|--------------------------|
G|--------7--7-9-9-----4-4-o|
D|-4-4-xx-7--7-9-9-xx--4-4-o|
A|-4-4-xx-5--5-7-7-xx--2-2--|
E|-2-2-xx-5--5-7-7-xx--2-2--|

riff 5
e|--------------------------------------------|
B|--------------------------------------------|
G|--------------------------------------------|
D|------5----------------------5----5-------7-|
A|-5-7----7--5------------5-7----7----7-5---7-|
E|-------------7-6-5-3-0------------------7-5-|

riff 6
e|----------------------------|
B|----------------------------|
G|-------4-4------------------|
D|-5-5x--4-4x--5-5x--2-4-0-2--|
A|-5-5x--2-2x--5-5x--2--------|
E|-3-3x--2-2x--3-3x--0--------|

riff 7
e|-----------------------------------------------------------|
B|-----------------------------------------------------------|
G|--------------7-7x-------------------------6-6-6-6-6-6-6-6-|
D|-5-5x--7-xxx--7-7x--5-xxx--7-7-7-7/9-9-9-9-6-6-6-6-6-6-6-6-|
A|-5-5x--7-xxx--5-5x--5-xxx--7-7-7-7/9-9-9-9-4-4-4-4-4-4-4-4-|
E|-3-3x--5-xxx--5-5x--3-xxx--5-5-5-5/7-7-7-7-----------------|

riff 8
e|---------------------------------------------------|
B|---------------------------------------------------|
G|--------5--5--------7--7--9-9----5--5--------------|
D|-2-2-xx-5--5--5-5-5-7--7--9-9-xx-5--5--5-5-5-7--7--|
A|-2-2-xx-3--3--5-5-5-5--5--7-7-xx-3--3--5-5-5-7--7--|
E|-0-0-xx-3--3--3-3-3-5--5--7-7-xx-3--3--3-3-3-5--5--|

riff 9
e|-----------------------------------------------------------------|
B|-----------------------------------------------------------------|
G|-------------------------4--4-xx---------------------------------|
D|-11-11-xx-7--7-xx-9-9-xx-4--4-xx-11-11-xx-7--7-xx-----7-6-7p6-4--|
A|-11-11-xx-5--5-xx-9-9-xx-2--2-xx-11-11-xx-5--5-xx---7------------|
E|-9--9--xx-5--5-xx-7-7-xx-2--2-xx-9--9--xx-5--5-xx-5--------------|

| /  slide up
| \  slide down
| h  hammer-on
| p  pull-off
| ~  vibrato
| <> harmonic 
| x  Mute 
| .  Palm mute
=============================================================================
comments
We did not receive enough feedback on this tab! Please rate:
print report bad tab
1 2 3 4 5
I want to post or [tab]
guest
You may want to rate the tab now too:
select rating
Please do not post tabs as comments. Select "correction" instead!