Oops, an error
Loading. Please wait.

Pacto De Amor chords

by Petra
40 views 1 this week
no commentswrite comment
1 2 3 4 5
3 more votes to show rating
add to favorites
×
Save as Personal and add changes to this tab that will be seen only by you. Learn more ›
×
You can save this tab as Personal to edit and correct it or add notes. All changes will be seen only by you. Learn more »
launch autoscroll
font size
0
reset
transpose
0
reset
simplify chords
display chords
guitar tuner
edit
Autoscroll
slow
fast
+/-
esc
set tempo
stop
Strumming
There is no strumming pattern for this song yet. and get +5 IQ
ESTA CANCION ESTA BASADA EL LA LECTURA
BIBLICA EN MARCOS 16:15 LEANLA
CUALQUIER DUDA A MI CORREO

josuemanuelsanchez@


ACORDES USADOS

    B5       B/A5      A5       G5       E
E||------| |------| |------|  |------| |------|
B||------| |------| |------|  |------| |------|
G||------| |------| |------|  |------| |------|
D||--9---| |--9---| |--7---|  |--5---| |--2---|
A||--9---| |--9---| |--7---|  |--5---| |--2---|
D||--7---| |--5---| |--5---|  |--3---| |------|


     F5       C5   Y ESTE G5°    D5
E||------| |------| |------|  |------|
B||------| |------| |------|  |------|
G||-10---| |------| |--12--|  |--7---|
D||-10---| |--12--| |--12--|  |--7---|
A||--8---| |--12--| |--10--|  |--5---|
D||------| |--10--| |------|  |------|


intro: B5 - B/A5 - G5 -  A5
       B5 - B/A5 - G5 - E

B5                 B/A5     G5      A5
Nunca intentaste ser de agrado secular
B5               B/A5       G5          E
Ni diluiste tu mensaje para hacerlo divulgar
 B5           B/A5      G5       A5
Nunca omitiste algo por no ofender
 B5              B/A5         G5       E    D5
Ni diste el avión para que puedan entender
D5       B5                A5
   Hablaste con amor la realidad
D5        B5        A5
  Es como debo hablar

(CORO)
      D5                      A5  B5
Nos confiaste hablar y el mensaje dar
G5                E5  A5
Un sagrado pacto de amor
     D5                     A5  B5
Nos confiaste hablar y el mensaje dar
        G5          A5       D5
El mensaje de amor y salvación


RIFF I

     D5      F5       G5°
E||---------------------------|| x2
B||---------------------------||
G||--7---x-x-10--x-x--12------||
D||--7---x-x-10--x-x--12--9---||
A||--5---x-x--8--x-x--10--9---||
D||-----------------------7---||

VERSO II

B5            B/A5       G5      A5
Las críticas no evadiste al debatir
   B5           B/A5      G5       E
O dudar al responder nuestro porvenir
B5           B/A5      G5        A5
Quien es Tu Padre nunca te avergonzó
B          B/A5     G5       E    D5
Nunca corriste bajo persecución
D5            B5                 A5  D5
  Pediste que Tu pueblo en oración
D5     B5        A5
  Llevara salvación

(CORO)
      D5                      A5  B5
Nos confiaste hablar y el mensaje dar
G5                E5  A5
Un sagrado pacto de amor
     D5                     A5  B5
Nos confiaste hablar y el mensaje dar
        G5          A5       D5
El mensaje de amor y salvación


RIFF II

  G5/C5                 A5  G5   E
|-------------------------------------|x3
|-------------------------------------|
|-------------------------------------|
|--7/10--10--10--10--10---9---7---2---|
|--7/10--10--10--10--10---9---7---2---|
|--5/8---8---8---8---8----7---5-------|

  G5     A5    B5
|----------------------------|x2
|----------------------------|
|----------------------------|
|--5--0--7----(9)------------|
|--5--0--7----(9)------------|
|--3--0--5----(7)------------|

EN ESTE PRE-CORO LLEVA EL RIFF 2

Pre-coro:

Tu nos confiaste el hablar
Y la historia pasar
En cada lengua y nación por igual
No me puedo detener
Y tengo que extender
La salvación de Dios llevaré


D5       B5                A5
   Hablaste con amor la realidad
D5        B5        A5
  Es como debo hablar

(CORO)
      D5                      A5  B5
Nos confiaste hablar y el mensaje dar
G5                E5  A5
Un sagrado pacto de amor
     D5                     A5  B5
Nos confiaste hablar y el mensaje dar
        G5          A5       D5
El mensaje de amor y salvación


     D5      F5       G5° B5
E||---------------------------|| x4
B||---------------------------||
G||--7---x-x-10--x-x--12------||
D||--7---x-x-10--x-x--12--9---||
A||--5---x-x--8--x-x--10--9---||
D||-----------------------7---||

            
            
Suggest correction
Creating personal tab
Creating personal tab
You can edit any tab online and save it as your Personal.

You can edit, replace or remove any tab part or add personal notes – all changes will be seen only by you.

Personal tabs can be accessed anytime from any device, even offline.
Learn more »
Give kudos to tab author, rate the tab!
1 2 3 4 5
comments
print report bad tab
guest
Wanna post a correction for this tab? Suggest correction