Oops, an error
Loading. Please wait.

Seen And Not Heard tab

by Petra
13 views 1 this week
no commentswrite comment
1 2 3 4 5
3 more votes to show rating
add to favorites
×
Save as Personal and add changes to this tab that will be seen only by you. Learn more ›
×
You can save this tab as Personal to edit and correct it or add notes. All changes will be seen only by you. Learn more »
launch autoscroll
font size
0
reset
how to read this tab
guitar tuner
edit
Autoscroll
slow
fast
+/-
esc
set tempo
stop
Petra -- Beyond Belief
"Seen and not heard"
by: Bob Hartman 
year: 1990
tab: Christoph Mertinat (crushtoph >at< gmx.de) 

[Intro]
Riff1:(2x)
   E5                                          D    A
e|-----------------|-----------------|-----------------|-------------------|
B|-----------------|-----------------|-----------------|-------------------|
G|-----------------|-----------------|-----------------|-------------------|
D|-----------------|-----------------|-----------------|-7-----------------|
A|-2-2-2-2-2-2-2-2-|-5---4---0-2-4-2-|-2-2-2-2-2-2-2-2-|-5-----7-----------|
E|-0-0-0-0-0-0-0-0-|-0-0-0-0-0-0-0-0-|-0-0-0-0-0-0-0-0-|-------5-----------|
   1 + 2 + 3 + 4 + | 1 + 2 + 3 + 4 + | 1 + 2 + 3 + 4 + | 1 + 2 + 3 + 4 +

Riff3:
    E       G   E     E       G   A     A       G   A     A       G   E       
e|----|-----------------|-----------------|-----------------|----------------|
B|----|-----------------|-----------------|-----------------|----------------|      
G|----|-----------------|-----------------|-----------------|----------------|
D|----|-----------------|---------2v----2v|---------2-----2-|----------------|
A|--2-|---------2v----2v|---------0-----0-|---------0-----0-|---------2------|
E|--0-|-----3---0-----0-|-----3-----------|-----3-----------|-----3---0------|
  4 + | 1 + 2 + 3 + 4 + | 1 + 2 + 3 + 4 + | 1 + 2 + 3 + 4 + | 1 + 2 + 3 + 4 +

[Verse 1]
                                                     E   
e|-----------------|-----------------|-----------------|-----------------|
B|-----------------|-----------------|-----------------|-----------------|                               
G|-----------------|-----------------|-----------------|-----------------|
D|-----------------|-----------------|-----9-9-9-9-----|-----------------|
A|-----------------|-----------------|-----7-7-7-7-----|-5---4---0-2-4-2-|
E|-----------------|-----------------|-0---------------|-0-0-0-0-0-0-0-0-|
   1 + 2 + 3 + 4 + | 1 + 2 + 3 + 4 + | 1 + 2 + 3 + 4 + | 1 + 2 + 3 + 4 +
      Too many black sheep in the family

                                       E                 D          A
e|-----------------|-----------------|-----------------|-----------------|
B|-----------------|-----------------|-----------------|-----------------|                               
G|-----------------|-----------------|-----------------|-----------------|
D|-----------------|-----------------|-----9-9-9-9-----|-7---------------|
A|-----------------|-----------------|-----7-7-7-7-----|-5-----7---------|
E|-----------------|-----------------|-0---------------|-------5---------|
   1 + 2 + 3 + 4 + | 1 + 2 + 3 + 4 + | 1 + 2 + 3 + 4 + | 1 + 2 + 3 + 4 +
     Too many stones from a house of   glass

       Bb                         G#    Bb          
    e|-------------------------|-------------------------|  
    B|-------------------------|-------------------------|  
    G|-------------------------|-------------------------|  
    D|-8--------8--------------|--6--------8-------------|  
    A|-8--------8--------------|--6--------8-------------| 
    E|-6--6--6--6--6--6--6--6--|--4--4--4--6--6--6--6--6-| 
       1  +  2  +  3  +  4 +   |  1  +  2  +  3  +  4  + | 
They've heard the stories, they've heard the lines

       Bb                         G#    Bb          
    e|-------------------------|-------------------------|  
    B|-------------------------|-------------------------|  
    G|-------------------------|-------------------------|  
    D|-8--------8--------------|--6--------8-------------|  
    A|-8--------8--------------|--6--------8-------------| 
    E|-6--6--6--6--6--6--6--6--|--4--4--4--6--6--6--6--6-| 
       1  +  2  +  3  +  4 +   |  1  +  2  +  3  +  4  + | 
   But talk is to cheap to    change their minds 

      A#
e|-----------------|-----------------|
B|-----------------|-----------------|
G|-----------------|-----------------|
D|-8-----8---------|-8-----8---------|
A|-8-8-8-8-8-8-8-8-|-8-8-8-8-8-8-8-8-|
E|-----------------|-----------------|
   1 + 2 + 3 + 4 + | 1 + 2 + 3 + 4 + | 
     They want to see some vital signs

       C                 Bb     F               C                 Bb     F
    e|-----------------|----------------------|-----------------|----------------------|  
    B|-----------------|----------------------|-----------------|----------------------|  
    G|-----------------|----------------------|-----------------|----------------------|
    D|-----------------|-8------3-------------|-----------------|-8------3-------------|  
    A|10----10---------|-8------3-------------|10----10---------|-8------3-------------| 
    E|-8-8-8-8-8-8-8-8-|-6-6-6--1-1-1-1-------|-8-8-8-8-8-8-8-8-|-6-6-6--1-1-1-1-------| 
       1 + 2 + 3 + 4 + | 1 + 2  + 3 + 4 +     | 1 + 2 + 3 + 4 + | 1 + 2  + 3 + 4 +     | 
   Convictions- in the   way we live        Convictions- not a    narrative        

   C                                     A
e|-----------------|-----------------|-----------------|
B|-----------------|-----------------|-----------------|
G|-----------------|-----------------|-----------------|
D|-5---5-5-5-----5-|---3-2---3-2-----|---7-7-7-7-7-7-7-|
A|-3---3-3-3-----5-|---3-2---3-2-3-5-|---5-5-5-5-5-5-5-|
E|-----------------|-------------3-5-|---5-5-5-5-5-5-5-|
   1 + 2 + 3 + 4 + | 1 + 2 + 3 + 4 + | 1 + 2 + 3 + 4 + | 
  Actions        speak a little louder than words


[Chorus]
(2x):
    E    E G   E      E    E   G   A     A    A   A   H A G A  E     G   E
e|----|-----------------|------------------|------------------|----------------|
B|----|-----------------|------------------|------------------|----------------|
G|----|-----------------|------------------|------------------|----------------|
D|----|-----------------|----------7v----7v|------7-----------|----------------|
A|--2-|--------2v-----2v|----------7-----7-|------7---9-7-5-7-|----------2-----|
E|--0-|--0-3---0------0-|--0---3---5-----5-|--5---5---7-5-3-5-|0-0---3---0-----|
  4 + |1oe 2 + 3 + 4  + |1oe + 2 + 3 + 4 + |1oe + 2 + 3 + 4 + |1oe + 2 + 3 + 
  Seen and not heard, seen and not heard,Sometimes God's       (seen and not heard        
                                            children should be)

    D          G        A G A   H     A            
e|----|----------------|----------------|------------------|----------------|
B|----|----------------|----------------|------------------|----------------|
G|----|----------------|----------------|------------------|----------------|
D|--7-|7-7-7-----------|--------------7v|------7-----------|----------------|
A|--5-|5-5-5---5-----5-|7-5-7---9-----7-|------7---9-7-5-7-|----------2-----|
E|----|--------3-----3-|5-3-5---7-----5-|--5---5---7-5-3-5-|0-0---3---0-----|
  4 + |1 + 2 + 3 + 4 + |1 + 2 + 3 + 4 + |1oe + 2 + 3 + 4 + |1oe + 2 + 3 + 
 There's too much talk and not enough walk                  seen and not heard
                                   Sometimes God's children should be 

[Solo1]
Riff1
git2: 
e|-----------------|-----------------|-----------------|-----------------|
B|-----------------|-----------------|-----------------|-----------------|
G|-9v--9v--9v--9v--|-6-7-9-----------|-----------------|-----------------|
D|-----------------|-------7---------|-5-7-9-----------|-----------------|
A|-----------------|-----------------|-------7---------|-7b8-s12---------|
E|-----------------|-----------------|-----------------|-----------------|
  1 + 2 + 3 + 4 + | 1 + 2 + 3 + 4 + | 1 + 2 + 3 + 4 + | 1 + 2 + 3 + 4 +

[Verse 2]
   E                                   E                 D     A
e|-----------------|-----------------|-----------------|-----------------|
B|-----------------|-----------------|-----------------|-----------------|
G|-----------------|-----------------|-----------------|-----------------|
D|-----9-9-9-9-----|-----------------|-----9-9-9-9-----|-7---------------|
A|-----7-7-7-7-----|-5---4---0-2-4-2-|-----7-7-7-7-----|-5-----7---------|
E|-0---------------|-0-0-0-0-0-0-0-0-|-0---------------|-------5---------|
   1 + 2 + 3 + 4 + | 1 + 2 + 3 + 4 + | 1 + 2 + 3 + 4 + | 1 + 2 + 3 + 4 +
Delayed reaction to hostilities         Brings us into   reality


       Bb                         G#    Bb          
    e|-------------------------|-------------------------|  
    B|-------------------------|-------------------------|  
    G|-------------------------|-------------------------|  
    D|-8--------8--------------|--6--------8-------------|  
    A|-8--------8--------------|--6--------8-------------| 
    E|-6--6--6--6--6--6--6--6--|--4--4--4--6--6--6--6--6-| 
       1  +  2  +  3  +  4 +   |  1  +  2  +  3  +  4  + | 
       Cause when we answer in    our   defense  

       Bb                         G#    Bb          
    e|-------------------------|-------------------------|  
    B|-------------------------|-------------------------|  
    G|-------------------------|-------------------------|  
    D|-8--------8--------------|--6--------8-------------|  
    A|-8--------8--------------|--6--------8-------------| 
    E|-6--6--6--6--6--6--6--6--|--4--4--4--6--6--6--6--6-| 
       1  +  2  +  3  +  4 +   |  1  +  2  +  3  +  4  + | 
       They can see through the   false pretense

      A#
e|-----------------|-----------------|
B|-----------------|-----------------|
G|-----------------|-----------------|
D|-8-----8---------|-8-----8---------|
A|-8-8-8-8-8-8-8-8-|-8-8-8-8-8-8-8-8-|
E|-----------------|-----------------|
   1 + 2 + 3 + 4 + | 1 + 2 + 3 + 4 + | 
     They wanna see some evidence

       C                 Bb     F               C                 Bb     F
    e|-----------------|----------------------|-----------------|----------------------|  
    B|-----------------|----------------------|-----------------|----------------------|  
    G|-----------------|----------------------|-----------------|----------------------|
    D|-----------------|-8------3-------------|-----------------|-8------3-------------|  
    A|10----10---------|-8------3-------------|10----10---------|-8------3-------------| 
    E|-8-8-8-8-8-8-8-8-|-6-6-6--1-1-1-1-------|-8-8-8-8-8-8-8-8-|-6-6-6--1-1-1-1-------| 
       1 + 2 + 3 + 4 + | 1 + 2  + 3 + 4 +     | 1 + 2 + 3 + 4 + | 1 + 2  + 3 + 4 +     | 
   Commitment- no more   ali----bis         Commitment- not a     compromise

   C                                     A
e|-----------------|-----------------|-----------------|
B|-----------------|-----------------|-----------------|
G|-----------------|-----------------|-----------------|
D|-5---5-5-5-----5-|---3-2---3-2-----|---7-7-7-7-7-7-7-|
A|-3---3-3-3-----5-|---3-2---3-2-3-5-|---5-5-5-5-5-5-5-|
E|-----------------|-------------3-5-|---5-5-5-5-5-5-5-|
   1 + 2 + 3 + 4 + | 1 + 2 + 3 + 4 + | 1 + 2 + 3 + 4 + | 
  Actions        speak a little louder than words

[Chorus]
(2x):
    E    E G   E      E    E   G   A     A    A   A   H A G A  E     G   E
e|----|-----------------|------------------|------------------|----------------|
B|----|-----------------|------------------|------------------|----------------|
G|----|-----------------|------------------|------------------|----------------|
D|----|-----------------|----------7v----7v|------7-----------|----------------|
A|--2-|--------2v-----2v|----------7-----7-|------7---9-7-5-7-|----------2-----|
E|--0-|--0-3---0------0-|--0---3---5-----5-|--5---5---7-5-3-5-|0-0---3---0-----|
  4 + |1oe 2 + 3 + 4  + |1oe + 2 + 3 + 4 + |1oe + 2 + 3 + 4 + |1oe + 2 + 3 + 
  Seen and not heard, seen and not heard,Sometimes God's       (seen and not heard        
                                            children should be)

    D          G        A G A   H     A            
e|----|----------------|----------------|------------------|----------------|
B|----|----------------|----------------|------------------|----------------|
G|----|----------------|----------------|------------------|----------------|
D|--7-|7-7-7-----------|--------------7v|------7-----------|----------------|
A|--5-|5-5-5---5-----5-|7-5-7---9-----7-|------7---9-7-5-7-|----------2-----|
E|----|--------3-----3-|5-3-5---7-----5-|--5---5---7-5-3-5-|0-0---3---0-----|
  4 + |1 + 2 + 3 + 4 + |1 + 2 + 3 + 4 + |1oe + 2 + 3 + 4 + |1oe + 2 + 3 + 
 There's too much talk and not enough walk                  seen and not heard
                                   Sometimes God's children should be 

Riff3: 
e|----|-----------------|-----------------|-----------------|-----------------|
B|----|-----------------|-----------------|-----------------|-----------------|
G|----|-----------------|-----------------|-----------------|-----------------|
D|----|-----------------|---------2v----2v|---------2-----2-|-----------------|
A|--2-|---------2v----2v|---------0-----0-|---------0-----0-|---------2-------|
E|--0-|-----3---0-----0-|-----3-----------|-----3-----------|-----3---0-------|
  4 + | 1 + 2 + 3 + 4 + | 1 + 2 + 3 + 4 + | 1 + 2 + 3 + 4 + | 1 + 2 + 3 + 4 +

e|----|-----------------|-----------------|-----------------|---------|
B|----|-----------------|-----------------|-----------------|---------|
G|----|-----------------|-----------------|-----------------|---------|
D|----|-----------------|---------2v----2v|---------2-----2-|---------|
A|--2-|---------2v----2v|---------0-----0-|---------0-----0-|---------|
E|--0-|-----3---0-----0-|-----3-----------|-----3-----------|-----3---|
  4 + | 1 + 2 + 3 + 4 + | 1 + 2 + 3 + 4 + | 1 + 2 + 3 + 4 + | 1 + 2 + 

[Bridge]
  B                C              Bb    C
e|--------|----------------|----------------|-----------------|----------------|
B|--------|----------------|----------------|-----------------|----------------|
G|--------|----------------|----------------|-----------------|----------------|
D|4---4---|4---4---5-------|5-----3-s-5-5---|-5-------5-------|-5--------------|
A|2-2-2-2-|2-2-2---3-3-3-3-|3-3-3-1-s-3-3---|-3-------3-3-3-3-|-3-3-3-5-s-7-7--|
E|--------|----------------|----------------|-----------------|-------3-s-5-5--|
  3 + 4 + |1 + 2 + 3 + 4 + |1 + 2 + 3 + 4 + |   
      Let your light so shine in all you do   With an Answer near when the come to you             


   A       H        A H     A A G E   D       H        A H     A   G E
 e|----------------|----------------|-----------------|----------------|  
 B|----------------|----------------|-----------------|----------------|
 G|----------------|----------------|-----------------|----------------|
 D|--2-2-2-4---4---|2-4-----2-2-----|---7-7-7-4---4---|2-4-----2-2-----|
 A|0-0-0-0-2---2---|0-2-----0-0---2-|-5-5-5-5-2---2---|0-2-----0-0---2-|
 E|----------------|------------3-0-|-----------------|------------3-0-|
   1 + 2 + 3 + 4 + |1 + 2 + 3 + 4 + | 1 + 2 + 3 + 4 + |1 + 2 + 3 + 4 +
Don't let your mouth start talkin' Until your feet start walkin'

[Solo]
              F#
e|-----------|------11-12-14----------9-11-|12--11-9------------------------|
B|--12-11-12-|14---------------------------|--------12--9-11-12-11-9--------|
G|-----------|-----------------------------|------------------------11---9--|
D|-----------|-----------------------------|--------------------------------|
A|-----------|-----------------------------|--------------------------------|
E|-----------|-----------------------------|--------------------------------|
   3 +  4  + | 1 + 2 + e  3 e + e 4 e +  e | 1   + e 2   + e  3  + e 4 e +  e |


e|-----------------------|---------7-------------------------|
B|-------------------4-5-|-7-5-4-5---5-4-5-7-4p0-------------|
G|---11-11-11-11---------|-----------------------------------|
D|11---------------------|-----------------------------------|
A|-----------------------|-----------------------------------|
E|-----------------------|-----------------------------------|
   1  +  2  +  3 + 4 + e | 1 e + e 2 e + e 3 e + e 4 e +  e  |

   A5 F#
e|-----------------------|-----------------------------------|
B|-----------------------2b3---------------------------------|
G|-2---------------------|----4-2--4-2-----------2-----------|
D|----4--4--4------------|-------------4-2-4---------4p2-----|
A|-----------------------|-----------------------------------|
E|-----------------------|-----------------------------------|
   1  +  2  +  3 + 4 + e | 1  + e  2 e + e 3 e + 4 e + e |

   E F#        A F#        A       H       
e|-------------5---------|-----5---7p5-----------------------|
B|5s7-7--7--7----7-7-7-7-|-5h7---------7p5-7-----------------|
G|-----------------------|-----------------------------------|
D|-----------------------|-----------------------------------|
A|-----------------------|-----------------------------------|
E|-----------------------|-----------------------------------|
   1  +  2  +  3 e + 4 + | 1 e + e 2 e + e 3 e + 4 e + e |

[Chorus]
(2x):
    E    E G   E      E    E   G   A     A    A   A   H A G A  E     G   E
e|----|-----------------|------------------|------------------|----------------|
B|----|-----------------|------------------|------------------|----------------|
G|----|-----------------|------------------|------------------|----------------|
D|----|-----------------|----------7v----7v|------7-----------|----------------|
A|--2-|--------2v-----2v|----------7-----7-|------7---9-7-5-7-|----------2-----|
E|--0-|--0-3---0------0-|--0---3---5-----5-|--5---5---7-5-3-5-|0-0---3---0-----|
  4 + |1oe 2 + 3 + 4  + |1oe + 2 + 3 + 4 + |1oe + 2 + 3 + 4 + |1oe + 2 + 3 + 
  Seen and not heard, seen and not heard,Sometimes God's       (seen and not heard        
                                            children should be)

    D          G        A G A   H     A            
e|----|----------------|----------------|------------------|----------------|
B|----|----------------|----------------|------------------|----------------|
G|----|----------------|----------------|------------------|----------------|
D|--7-|7-7-7-----------|--------------7v|------7-----------|----------------|
A|--5-|5-5-5---5-----5-|7-5-7---9-----7-|------7---9-7-5-7-|----------2-----|
E|----|--------3-----3-|5-3-5---7-----5-|--5---5---7-5-3-5-|0-0---3---0-----|
  4 + |1 + 2 + 3 + 4 + |1 + 2 + 3 + 4 + |1oe + 2 + 3 + 4 + |1oe + 2 + 3 + 
 There's too much talk and not enough walk                  seen and not heard
                                   Sometimes God's children should be 



***********************************
| b Bend
| h Hammer-on
| p Pull-off
| s Slide
***********************************



************************************

| b  Bend
| p  Pull-off
| h  Hammer-on
| s  
| v  

************************************

            
            
Suggest correction
Creating personal tab
Creating personal tab
You can edit any tab online and save it as your Personal.

You can edit, replace or remove any tab part or add personal notes – all changes will be seen only by you.

Personal tabs can be accessed anytime from any device, even offline.
Learn more »
Give kudos to tab author, rate the tab!
1 2 3 4 5
comments
print report bad tab
guest
You may want to rate the tab now too:
select rating
Wanna post a correction for this tab? Suggest correction