Oops, an error
Loading. Please wait.

Underground tab

by Petra
25 views 3 this week
no commentswrite comment
1 2 3 4 5
3 more votes to show rating
add to favorites
×
Save as Personal and add changes to this tab that will be seen only by you. Learn more ›
×
You can save this tab as Personal to edit and correct it or add notes. All changes will be seen only by you. Learn more »
launch autoscroll
font size
0
reset
how to read this tab
guitar tuner
edit
Autoscroll
slow
fast
+/-
esc
set tempo
stop
Artist: Petra -- Beyond Belief
Song: Underground
by: Bob Hartman 
year: 1990
Tempo: 137,7 BPM
tab: Christoph Mertinat (crushtoph >at< gmx.de) 

[Intro]
M1 E5      D5   E5           D         C      B         C      B    
e|-----------------|-----------------|----------------|-------------------|
B|-----------------|-----------------|----------------|-------------------|
G|-----------------|-----------------|----------------|-------------------|
D|-----9---7-----9-|-----9---7-------|-5-5-5--4-------|-5-5-5--4----------|
A|-.-.-7-.-5---.-7-|-.-.-7-.-5-------|-3-3-3--2---0-2-|-3-3-3--2-0--------|
E|-0-0-0-0-----0-0-|-0-0-0-0-0---5h7-|----------------|------------3-2----|
   1 + 2 + 3 + 4 + | 1 + 2 + 3 + 4 + | 1 o le 3 + 4 + | 1 o le 3 + 4 +

M5 E5      D5   E5           D         C      B          C      B    
e|-----------------|-----------------|-----------------|--------------------|
B|-----------------|-----------------|-----------------|--------------------|
G|-----------------|-----------------|-----------------|--------------------|
D|-----9---7-----9-|-----9---7-------|-5-5-5-5-4---2-4-|-5-5-5-5-4---2-4----|
A|-.-.-7-.-5---.-7-|-.-.-7-.-5-------|-3-3-3-3-2---0-2-|-3-3-3-3-2---0-2----|
E|-0-0-0-0-----0-0-|-0-0-0-0-0---5h7-|-----------------|--------------------|
   1 + 2 + 3 + 4 + | 1 + 2 + 3 + 4 + | 1 + 2 + 3 + 4 + | 1 + 2 + 3 + 4 + 

M9 C                 G                 E                 D
e|-----------------|-----------------|-----------------|-------------------|
B|-----------------|-----------------|-----------------|-------------------|
G|-----------------|-----------------|-----------------|-------------------|
D|-5-.-.-5-.-.-5-.-|---.-.---.-.---.-|-9-.-.-9-.-.-9-.-|-7-.-.-7-.-.-7-.---|
A|-3-3-3-3-3-3-3-3-|-5---5---5---5---|-7-7-7-7-7-7-7-7-|-5-5-5-5-5-5-5-5---|
E|-----------------|-3-3-3-3-3-3-3-3-|-----------------|-------------------|
   1 + 2 + 3 + 4 + | 1 + 2 + 3 + 4 + | 1 + 2 + 3 + 4 + | 1 + 2 + 3 + 4 + 

M13 C                G                 E                 F#
e|------------------|-----------------|-----------------|-------------------|
B|------------------|-----------------|-----------------|-------------------|
G|------------------|-----------------|-----------------|-------------------|
D|--5-.-.-5-.-.-5-.-|---.-.---.-.---.-|-9-.-.-9-.-.-9-.-|11-.-.11-.-.11-.---|
A|--3-3-3-3-3-3-3-3-|-5---5---5---5---|-7-7-7-7-7-7-7-7-|-9-9-9-9-9-9-9-9---|
E|------------------|-3-3-3-3-3-3-3-3-|-----------------|-------------------|
    1 + 2 + 3 + 4 + | 1 + 2 + 3 + 4 + | 1 + 2 + 3 + 4 + | 1 + 2 + 3 + 4 + 
    
[Guitar 2]
M5 E5      D5   E5           D         C      B          C      B    
e|-----------------|-----------------|-----------------|--------------------|
B|-----------------|-----------5-7-8-|-8-----7-7-----5-|-5------------------|
G|-----------------|-----------------|-----------------|-------7-7----------|
D|-----------------|-----------------|-----------------|--------------------|
A|-----------------|-----------------|-----------------|--------------------|
E|-----------------|-----------------|-----------------|--------------------|
   1 + 2 + 3 + 4 + | 1 + 2 + 3 + 4 + | 1 + 2 + 3 + 4 + | 1 + 2 + 3 + 4 +

M9 C                 G                 E                 D
e|-------------7---|-7-------------7-|-8----7----------|--------------------|
B|-8--------10-----|------10---------|---------------8-|10------------------|
G|-----------------|-----------------|-----------------|--------------------| 
D|-----------------|-----------------|-----------------|--------------------|
A|-----------------|-----------------|-----------------|--------------------|
E|-----------------|-----------------|-----------------|--------------------|
   1 + 2 + 3 + 4 + | 1 + 2 + 3 + 4 + | 1 + 2 + 3 + 4 + | 1 + 2 + 3 + 4 +

M13 C                G                 E                 F#
e|--------------7---|-7-------------7-|-8----7----------|--------------------|
B|--8--------10-----|------10---------|---------------8-|10------------------|
G|------------------|-----------------|-----------------|--------------------| 
D|------------------|-----------------|-----------------|--------------------|
A|------------------|-----------------|-----------------|--------------------|
E|------------------|-----------------|-----------------|--------------------|
    1 + 2 + 3 + 4 + | 1 + 2 + 3 + 4 + | 1 + 2 + 3 + 4 + | 1 + 2 + 3 + 4 +

[Guitar 1]
M17        E   D        G   F#   D E     E         D E    G     A
e|-----------------|-----------------|-----------------|-------------------|
B|-----------------|-----------------|-----------------|-------------------|
G|-----------------|-----------------|-----------------|-------------------|
D|---------9---7/9-|----12--11---7/9-|---9-----9---7/9-|--12----14---------|
A|---------7---5/7-|----10---9---5/7-|---7-----7---5/7-|--10----12---------|
E|-----0-0-0-------|-0-0-------------|-0---0-0---------|-0---0-0-------0---|
   1 + 2 + 3 + 4 + | 1 + 2 + 3 + 4 + | 1 + 2 + 3 + 4 +   1 + 2 + 3 + 4 +  

M21        E   D        G   F#   D E     E         D E    G     A
e|-----------------|-----------------|-----------------|-------------------|
B|-----------------|-----------------|-----------------|-------------------|
G|-----------------|-----------------|-----------------|-------------------|
D|---------9---7/9-|----12--11---7/9-|---9-----9---7/9-|--12----14---------|
A|---------7---5/7-|----10---9---5/7-|---7-----7---5/7-|--10----12---------|
E|-0-0-0-0-0-------|-0-0-------------|-0---0-0---------|-0---0-0-----------|
   1 + 2 + 3 + 4 + | 1 + 2 + 3 + 4 + | 1 + 2 + 3 + 4 +   1 + 2 + 3 + 4 +

[Verse 1]
M25        E   D        G   F#   D E     E         D E    G     A
e|-----------------|-----------------|-----------------|-------------------|
B|-----------------|-----------------|-----------------|-------------------|
G|-----------------|-----------------|-----------------|-------------------|
D|---------9---7/9-|----12--11---7/9-|---9-----9---7/9-|--12----14---------|
A|---------7---5/7-|----10---9---5/7-|---7-----7---5/7-|--10----12---------|
E|-----0-0-0-------|-0-0-------------|-0---0-0---------|-0---0-0-------0---|
   1 + 2 + 3 + 4 + | 1 + 2 + 3 + 4 + | 1 + 2 + 3 + 4 +   1 + 2 + 3 + 4 +  

M29        E   D        G   F#   D E     E         D E    G     A
e|-----------------|-----------------|-----------------|-------------------|
B|-----------------|-----------------|-----------------|-------------------|
G|-----------------|-----------------|-----------------|-------------------|
D|---------9---7/9-|----12--11---7/9-|---9-----9---7/9-|--12----14---------|
A|---------7---5/7-|----10---9---5/7-|---7-----7---5/7-|--10----12---------|
E|-0-0-0-0-0-------|-0-0-------------|-0---0-0---------|-0---0-0-----------|
   1 + 2 + 3 + 4 + | 1 + 2 + 3 + 4 + | 1 + 2 + 3 + 4 +   1 + 2 + 3 + 4 +
                                                                  Look at the

M33        E   D        G   F#   D E     E         D E    G     A
e|-----------------|-----------------|-----------------|-------------------|
B|-----------------|-----------------|-----------------|-------------------|
G|-----------------|-----------------|-----------------|-------------------|
D|---------9---7/9-|----12--11---7/9-|---9-----9---7/9-|--12----14---------|
A|---------7---5/7-|----10---9---5/7-|---7-----7---5/7-|--10----12---------|
E|-0-0-0-0-0-------|-0-0-------------|-0---0-0---------|-0---0-0-----------|
   1 + 2 + 3 + 4 + | 1 + 2 + 3 + 4 + | 1 + 2 + 3 + 4 +   1 + 2 + 3 + 4 +
frontpage, turn on the TV, they frie another round at you and me
                                                                 Their guns are

M37        E   D        G   F#   D E     E         D E    G     A
e|-----------------|-----------------|-----------------|-------------------|
B|-----------------|-----------------|-----------------|-------------------|
G|-----------------|-----------------|-----------------|-------------------|
D|---------9---7/9-|----12--11---7/9-|---9-----9---7/9-|--12----14---------|
A|---------7---5/7-|----10---9---5/7-|---7-----7---5/7-|--10----12---------|
E|-0-0-0-0-0-------|-0-0-------------|-0---0-0---------|-0---0-0-----------|
   1 + 2 + 3 + 4 + | 1 + 2 + 3 + 4 + | 1 + 2 + 3 + 4 +   1 + 2 + 3 + 4 +
    loaded, they are taking aim, nobody told them we´re not all the same.

M41 F#    G           E     F#          F#    G           E     F#        
e|------------------|-----------------|-----------------|-------------------|
B|------------------|-----------------|-----------------|-------------------|
G|------------------|-----------------|-----------------|-------------------|
D|--4-----5-----5---|-2-----4-----4---|-4-----5-----5---|-2-----4-----4-----|
A|--4-----5-----5---|-2-----4-----4---|-4-----5-----5---|-2-----4-----4-----|
E|--2-2-2-3-3-3-3-3-|-0-0-0-2-2-2-2-2-|-2-2-2-3-3-3-3-3-|-0-0-0-2-2-2-2-2---|   
    1 + 2 + 3 + 4 + | 1 + 2 + 3 + 4 + | 1 + 2 + 3 + 4 +   1 + 2 + 3 + 4 +
   No Paranoia,       nobody could just riding off as being hollywood

M45 G#    A           F#    G#          G#    A           F#    G#
e|------------------|-----------------|-----------------|-------------------|
B|------------------|-----------------|-----------------|-------------------|
G|------------------|-----------------|-----------------|-------------------|
D|--6-----7-----7---|-4-----6-----6---|-6-----7-----5---|-4-----6-----6-----|
A|--6-----7-----7---|-4-----6-----6---|-6-----7-----7---|-4-----6-----6-----|
E|--4-4-4-5-5-5-5-5-|-2-2-2-4-4-4-4-4-|-4-4-4-5-5-5-5-5-|-2-2-2-4-4-4-4-4---|   
    1 + 2 + 3 + 4 + | 1 + 2 + 3 + 4 + | 1 + 2 + 3 + 4 +   1 + 2 + 3 + 4 +
The innuendo between the lines  leaves no confussion bout what´s on their minds

[Chorus 1]
M49
e|-----------------|-----------------|
B|-----------------|-----------------|
G|-----------------|-----------------|
D|-4---------------|-----------------|
A|-4---------------|-----------------|
E|-2---------------|-----------------|
   1 + 2 + 3 + 4 + | 1 + 2 + 3 + 4 + |
 woah                          I wont go

(4x) 
M51
   D                  E                 F#                G#
e|------------------|-----------------|-----------------|-----------------|
B|------------------|-----------------|-----------------|-----------------|
G|--7-----7-----7---|-----------------|-----------------|-----------------|
D|--7-----7-----7---|-2-----2-----2---|-4-----4-----4---|-6-----6-----6---|
A|--5-5-5-5-5-5-5-5-|-2-----2-----2---|-4-----4-----4---|-6-----6-----6---|
E|------------------|-0-0-0-0-0-0-0-0-|-2-2-2-2-2-2-2-2-|-4-4-4-4-4-4-4-4-|
    1 + 2 + 3 + 4 + | 1 + 2 + 3 + 4 + | 1 + 2 + 3 + 4 + | 1 + 2 + 3 + 4 + |
 1.Underground              I wont turn and flee,I wont bow my knee. I won´t go
 2.Underground              I won´t run and hide from the rising tide,I won´t go
 3.Underground              I won´t compromise what the world denies, I won´t go
 4.Underground              And I´m not ashamed of the cross I´ve claimed

M67 A
e|------------------|-----------------|
B|------------------|-----------------|
G|------------------|-----------------|
D|--7-----7-----7---|-7-----7-----7---|
A|--7-----7-----7---|-7-----7-----7---|
E|--5-5-5-5-5-5-5-5-|-5-5-5-5-5-5-5-5-|
    1 + 2 + 3 + 4 + | 1 + 2 + 3 + 4 + |
                              Listen:

[Verse 2]
M69        E   D        G   F#   D E           E   D E    G     A
e|-----------------|-----------------|-----------------|-------------------|
B|-----------------|-----------------|-----------------|-------------------|
G|-----------------|-----------------|-----------------|-------------------|
D|---------9---7/9-|----12--11---7/9-|---9-----9---7/9-|--12----14---------|
A|---------7---5/7-|----10---9---5/7-|---7-----7---5/7-|--10----12---------|
E|-0-0-0-0-0-------|-0-0-------------|-0---0-0---------|-0---0-0-----------|
   1 + 2 + 3 + 4 + | 1 + 2 + 3 + 4 + | 1 + 2 + 3 + 4 +   1 + 2 + 3 + 4 +
          They´re taking notes on what we say, they´d like to lock us all away

M73        E   D        G   F#   D E           E   D E    G     A
e|-----------------|-----------------|-----------------|-------------------|
B|-----------------|-----------------|-----------------|-------------------|
G|-----------------|-----------------|-----------------|-------------------|
D|---------9---7/9-|----12--11---7/9-|---9-----9---7/9-|--12----14---------|
A|---------7---5/7-|----10---9---5/7-|---7-----7---5/7-|--10----12---------|
E|---------0-------|-0-0-------------|-0---0-0---------|-0---0-0-----------|
   1 + 2 + 3 + 4 + | 1 + 2 + 3 + 4 + | 1 + 2 + 3 + 4 +   1 + 2 + 3 + 4 +
  Can´t stop the movement, can´t make it slow, Persecution always makes us grow

M77 F#    G           E     F#          F#    G           E     F#
e|------------------|-----------------|-----------------|-------------------|
B|------------------|-----------------|-----------------|-------------------|
G|------------------|-----------------|-----------------|-------------------|
D|--4-----5-----5---|-2-----4-----4---|-4-----5-----5---|-2-----4-----4-----|
A|--4-----5-----5---|-2-----4-----4---|-4-----5-----5---|-2-----4-----4-----|
E|--2-2-2-3-3-3-3-3-|-0-0-0-2-2-2-2-2-|-2-2-2-3-3-3-3-3-|-0-0-0-2-2-2-2-2---|   
    1 + 2 + 3 + 4 + | 1 + 2 + 3 + 4 + | 1 + 2 + 3 + 4 +   1 + 2 + 3 + 4 +
    They got my number, it´s no surprise, I´m here and wearing no disguise.

M81 G#    A           F#    G#          F#    A           F#    G#
e|------------------|-----------------|-----------------|-------------------|
B|------------------|-----------------|-----------------|-------------------|
G|------------------|-----------------|-----------------|-------------------|
D|--6-----7-----7---|-4-----6-----6---|-6-----7-----5---|-4-----6-----6-----|
A|--6-----7-----7---|-4-----6-----6---|-6-----7-----7---|-4-----6-----6-----|
E|--4-4-4-5-5-5-5-5-|-2-2-2-4-4-4-4-4-|-4-4-4-5-5-5-5-5-|-2-2-2-4-4-4-4-4---|   
    1 + 2 + 3 + 4 + | 1 + 2 + 3 + 4 + | 1 + 2 + 3 + 4 +   1 + 2 + 3 + 4 +
 Bring on the lions, heat up the fire, It´s not enough to stop this mans desire.

[Chorus 2]
M85
e|-----------------|-----------------|
B|-----------------|-----------------|
G|-----------------|-----------------|
D|-4---------------|-----------------|
A|-4---------------|-----------------|
E|-2---------------|-----------------|
   1 + 2 + 3 + 4 + | 1 + 2 + 3 + 4 + |
 woah                          I wont go

(4x) 
M87
   D                  E                 F#                G#
e|------------------|-----------------|-----------------|-----------------|
B|------------------|-----------------|-----------------|-----------------|
G|--7-----7-----7---|-----------------|-----------------|-----------------|
D|--7-----7-----7---|-2-----2-----2---|-4-----4-----4---|-6-----6-----6---|
A|--5-5-5-5-5-5-5-5-|-2-----2-----2---|-4-----4-----4---|-6-----6-----6---|
E|------------------|-0-0-0-0-0-0-0-0-|-2-2-2-2-2-2-2-2-|-4-4-4-4-4-4-4-4-|
    1 + 2 + 3 + 4 + | 1 + 2 + 3 + 4 + | 1 + 2 + 3 + 4 + | 1 + 2 + 3 + 4 + |
 1.Underground             I wont turn and flee,I wont bow my knee. I won´t go
 2.Underground             I keep holding fast till the very last, I won´t go
 3.Underground             I will turn my cheek, I will boldly speek, I won´t go
 4.Underground             And I´m not ashamed of the cross I´ve claimed

[Keyboard-Solo]
M91 A
e|--------------------------------|------------------------------------|
B|--------------------------------|------------------------------------|
G|--------------------------------|------------------------------------|
D|----4h5---4---------------------|-----4h5---4------------------------|
A|--------7---5-7-3-------5-------|---------7---5-7-3------------------|
E|--------------------------------|------------------------------------|
  1 e + e 2 e + e 3 e + e 4 e + e | 1 e + e 2 e + e 3 e + e 4 e + e    |
M93
e|--------------------------------|---------------------------------|
B|--------------------------------|---------------------------------|
G|--------------------------------|-------------4-5-----------------|
D|----4h5---4---------------------|-5h4---4-5-7-----7---------------|
A|--------7---5-7-3-------5-------|-----7---------------------------|
E|--------------------------------|---------------------------------|
  1 e + e 2 e + e 3 e + e 4 e + e | 1 e + e 2 e + e 3 e + e 4 e + e |
M95
e|--------------------------------|------------------------------------|
B|--------------------------------|------------------------------------|
G|--------------------------------|------------------------------------|
D|----4h5---4---------------------|-----4h5---4------------------------|
A|--------7---5-7-3-------5-------|---------7---5-7-3------------------|
E|--------------------------------|------------------------------------|
  1 e + e 2 e + e 3 e + e 4 e + e | 1 e + e 2 e + e 3 e + e 4 e + e    |
M97
e|--------------------------------|---------------------------------|
B|--------------------------------|---------------------------------|
G|--------------------------------|---------------------------------|
D|----4h5---4---------------------|-4h5---4-------------------------|
A|--------7---5-7-3-------5-------|-----7---5-7-3-5-2-3-0-2-3-5-2-3-|
E|--------------------------------|---------------------------------|
  1 e + e 2 e + e 3 e + e 4 e + e | 1 e + e 2 e + e 3 e + e 4 e + e |

[Guitar-Solo]
(Guitar 1)
M99
e|----------------|-----------------|
B|----------------|-----------------|
G|----------------|-----------------|
D|-2--------------|-----------------|
A|-2--------------|-----------------|
E|-0--------------|-----------------|
  1 + 2 + 3 + 4 + | 1 + 2 + 3 + 4 + 

M101 E           D   E                 E           D   E
e|----------------------------------|------------------------------------|
B|----------------------------------|------------------------------------|
G|----------------------------------|------------------------------------|
D|--9-----9-9---7---9---------------|-9-----9-9---7---9------------------|
A|--7-----7-7---5---7---------------|-7-----7-7---5---7------------------|
E|----------------------------------|------------------------------------|
    1 e + e 2 e + e 3 e + e 4 e + e | 1 e + e 2 e + e 3 e + e 4 e + e      |

M103 B           A   B                 B           A   B
e|-----------------------------------|------------------------------------|
B|-----------------------------------|------------------------------------|
G|-----------------------------------|------------------------------------|
D|-----------------------------------|------------------------------------|
A|---9-----9-9---7---9---------------|-9-----9-9---7---9------------------|
E|---7-----7-7---5---7---------------|-7-----7-7---5---7------------------|
     1 e + e 2 e + e 3 e + e 4 e + e | 1 e + e 2 e + e 3 e + e 4 e + e      |

M105 E           D   E                 E           D   E
e|-----------------------------------|------------------------------------|
B|-----------------------------------|------------------------------------|
G|-----------------------------------|------------------------------------|
D|---9-----9-9---7---9---------------|-9-----9-9---7---9------------------|
A|---7-----7-7---5---7---------------|-7-----7-7---5---7------------------|
E|-----------------------------------|------------------------------------|
     1 e + e 2 e + e 3 e + e 4 e + e | 1 e + e 2 e + e 3 e + e 4 e + e    |

M107 B           A   B                 B           A   B
e|-----------------------------------|------------------------------------|
B|-----------------------------------|------------------------------------|
G|-----------------------------------|------------------------------------|
D|-----------------------------------|------------------------------------|
A|---9-----9-9---7---9---------------|-9-----9-9---7---7------10----------|
E|---7-----7-7---5---7---------------|-7-----7-7---5---5-------8----------|
     1 e + e 2 e + e 3 e + e 4 e + e | 1 e + e 2 e + e 3 e + e 4 e + e    |

(Guitar 2)
M104 B       A   B                          E           D     E      
e|--------------15-19-17-15----17-15-14---|19----------------------------------|
B|-----------17-------------19---------17-|------------------------------------|
G|----------------------------------------|------------------------------------|
D|----------------------------------------|------------------------------------|
A|----------------------------------------|------------------------------------|
E|----------------------------------------|------------------------------------|
   1e +e 2 e  +  e  3  e  +  e  4  e  + e | 1 e + e 2 e +  e  3  e + e 4 e + e |

M106  B       A   B                          E           D     E 
e|-----------------17-15-14----15-14-------|17---------------------------------|
B|-----------15-17----------17-------17-15-|-----------------------------------|
G|-----------------------------------------|-----------------------------------|
D|-----------------------------------------|-----------------------------------|
A|-----------------------------------------|-----------------------------------|
E|-----------------------------------------|-----------------------------------|
   1e +e 2 e  +  e  3  e  +  e  4  e  +  e | 1 e + e 2 e +  e 3  e + e 4 e + e |

[Bridge]
M109
   F#    G           E     F#          F#    G           E     F#
e|-----------------|-----------------|-----------------|-------------------|
B|-----------------|-----------------|-----------------|-------------------|
G|-----------------|-----------------|-----------------|-------------------|
D|-4-----5-----5---|-2-----4-----4---|-4-----5-----5---|-2-----4-----4-----|
A|-4-----5-----5---|-2-----4-----4---|-4-----5-----5---|-2-----4-----4-----|
E|-2-2-2-3-3-3-3-3-|-0-0-0-2-2-2-2-2-|-2-2-2-3-3-3-3-3-|-0-0-0-2-2-2-2-2---|   
   1 + 2 + 3 + 4 + | 1 + 2 + 3 + 4 + | 1 + 2 + 3 + 4 +   1 + 2 + 3 + 4 +
I know the spirit behind this force, its not surprising when you know the source

M113
   G#    A           F#    G#          G#    A           F#    G#
e|-----------------|-----------------|-----------------|-------------------|
B|-----------------|-----------------|-----------------|-------------------|
G|-----------------|-----------------|-----------------|-------------------|
D|-6-----7-----7---|-4-----6-----6---|-6-----7-----5---|-4-----6-----6-----|
A|-6-----7-----7---|-4-----6-----6---|-6-----7-----7---|-4-----6-----6-----|
E|-4-4-4-5-5-5-5-5-|-2-2-2-4-4-4-4-4-|-4-4-4-5-5-5-5-5-|-2-2-2-4-4-4-4-4---|   
   1 + 2 + 3 + 4 + | 1 + 2 + 3 + 4 + | 1 + 2 + 3 + 4 +   1 + 2 + 3 + 4 +
 I´m praying for freedom for helpless ones
                                   And I keep standing till the new day dawns.

[Chorus 1]
M117
e|-----------------|-----------------|
B|-----------------|-----------------|
G|-----------------|-----------------|
D|-4---------------|-----------------|
A|-4---------------|-----------------|
E|-2---------------|-----------------|
   1 + 2 + 3 + 4 + | 1 + 2 + 3 + 4 + |
 woah                          I wont go

(4x) 
M119
   D                  E                 F#                G#
e|------------------|-----------------|-----------------|-----------------|
B|------------------|-----------------|-----------------|-----------------|
G|--7-----7-----7---|-----------------|-----------------|-----------------|
D|--7-----7-----7---|-2-----2-----2---|-4-----4-----4---|-6-----6-----6---|
A|--5-5-5-5-5-5-5-5-|-2-----2-----2---|-4-----4-----4---|-6-----6-----6---|
E|------------------|-0-0-0-0-0-0-0-0-|-2-2-2-2-2-2-2-2-|-4-4-4-4-4-4-4-4-|
    1 + 2 + 3 + 4 + | 1 + 2 + 3 + 4 + | 1 + 2 + 3 + 4 + | 1 + 2 + 3 + 4 + |
 1.Underground              I wont turn and flee,I wont bow my knee. I won´t go
 2.Underground              I won´t run and hide from the rising tide,I won´t go
 3.Underground              I won´t compromise what the world denies, I won´t go
 4.Underground              And I´m not ashamed of the cross I´ve claimed I won´t go
 5.Underground              And I won´t lay low when the hatred grows
 

*******************************

| .   Staccato
| h   Hammer-on
| p   Pull-off
\ /   Slide-up

*******************************

            
            
Suggest correction
Creating personal tab
Creating personal tab
You can edit any tab online and save it as your Personal.

You can edit, replace or remove any tab part or add personal notes – all changes will be seen only by you.

Personal tabs can be accessed anytime from any device, even offline.
Learn more »
Give kudos to tab author, rate the tab!
1 2 3 4 5
comments
print report bad tab
guest
You may want to rate the tab now too:
select rating
Wanna post a correction for this tab? Suggest correction