Oops, an error
Loading. Please wait.

Un Hombre Muerto En El Ring tab

version 2
version 2

Whole song

92 views 1 this week
no commentswrite comment
1 2 3 4 5
3 more votes to show rating
add to favorites
×
Save as Personal and add changes to this tab that will be seen only by you. Learn more ›
×
You can save this tab as Personal to edit and correct it or add notes. All changes will be seen only by you. Learn more »
launch autoscroll
font size
0
reset
how to read this tab
guitar tuner
edit
Autoscroll
slow
fast
+/-
esc
set tempo
stop
Hola a todos, bueno, aquí mando este Tab el cual le pusegran canción,
harto entuciasmo, pero ojalá que les guste...

      CECILIA TE AMO!!!!!!!

Intro:

E|--------------------------|\
B|--------------------------| \
G|--------------------------|  \x7
D|-7-7--5-0-0-5/6/7---------|  /
A|-7-7--5-0-0-5/6/7---------| /
E|-5-5--3-0-0-3/4/5---------|/

Verso:
E|-------------------------------------------------|
B|-------------------------------------------------|
G|-------------------------------------------------|
D|-------------------------------------------------|
A|-----------------------------5-5-3-0-0-3h4h5-X3--|
E|-5-5-3-0-0-3h4h5-5-3-0-0-3h4---------------------|
(Un hombre muerto en el ring...)

E|----------------------------------|
B|----------------------------------|
G|----------------------------------|
D|----------------------------------|
A|-7-7-5-0-0-5h6--------------------|
E|----------------5-5-3-0-0-3h4h5---|
(Pero se secara bajo tierra...

Verso Nº2:

E|-------------------------------------------|
B|-------------------------------------------|
G|---------------------7-7-5-0-0-5/6/7-------|
D|-7-7--5-0-0-5/6/7----7-7-5-0-0-5/6/7-X3----|
A|-7-7--5-0-0-5/6/7-X2-5-5-3-0-0-3/4/5-------|
E|-5-5--3-0-0-3/4/5--------------------------|
(Un hombre muerto en el ring...)

E|------------------------------------|
B|------------------------------------|
G|-5-5-5-0-0-5/6/7--------------------|
D|-5-5-5-0-0-5/6/7--7-7--5-0-0-5/6/7--|
A|-7-7-3-0-0-3/4/5--7-7--5-0-0-5/6/7--|
E|------------------5-5--3-0-0-3/4/5--|
(Pero se secara bajo tierra...)

(Golpes secos...):

E|---------------|
B|---------------|
G|-7-7-7---------|
D|-7-7-7--7-7-7--|
A|-5-5-5--7-7-7--|
E|--------5-5-5--|

(Verso 2)

Bueno, a este Tab le falta los 'Solos' que trae... pero estoy trabajdo en
ello, así que por favor tengan paciencia, porque pronto
los pondre...

Un saludo muy especial a Cecilia Hazeldine, que la AMO
CALETA!!!!!

           CHAOOOOOOOOOOOO

            
            
Suggest correction
Creating personal tab
Creating personal tab
You can edit any tab online and save it as your Personal.

You can edit, replace or remove any tab part or add personal notes – all changes will be seen only by you.

Personal tabs can be accessed anytime from any device, even offline.
Learn more »
Give kudos to tab author, rate the tab!
1 2 3 4 5
comments
print report bad tab
guest
Wanna post a correction for this tab? Suggest correction