Oops, an error
Loading. Please wait.

Denso tab

59 views 1 this week
no commentswrite comment
1 2 3 4 5
3 more votes to show rating
add to favorites
×
Save as Personal and add changes to this tab that will be seen only by you. Learn more ›
×
You can save this tab as Personal to edit and correct it or add notes. All changes will be seen only by you. Learn more »
launch autoscroll
font size
0
reset
how to read this tab
guitar tuner
edit
Autoscroll
slow
fast
+/-
esc
set tempo
stop
intro:

 (4 veces)
-x--x--xx------
-x--x--xx------
-x--x--xx------
-3--3--31------
-3--3--31------
-3--3--xx------

-x-x-x-x-------
-x-x-x-x-------
-x-x-x-x-------
-3-3-4-4-------
-3-3-4-4-------
-x-x-x-x-------

 (4 veces)
-x--x--xx------
-x--x--xx------
-x--x--xx------
-3--3--31------
-3--3--31------
-3--3--xx------

-x-x-x-x--x----
-x-x-x-x--x----
-x-x-x-x--x----
-3-3-3-3--4----
-3-3-3-3--4----
-3-3-3-3--4----

(intro mientras se canta)
Pienso, denso me siento algo tenso
la mera neta no soy Juan DeArdienso
tampoco pichuco, no me machuco si te
digo que parado en la cancha

*Parte 2*
(Repetir esto en esta parte
 hasta intro)
-x--x--x-------
-x--x--x-------
-x--x--x-------
-3--1--6-------
-3--1--6-------
-x--x--x-------

me siento a mis anchas
me meten una plancha
revancha es lo que pido
pero no solo me parten la rodilla
parece una astilla
se quiebra me enhebra y..

(intro mientras se canta)
me recuerda que no me gusta el fainá
si no viene de orilla como Roger Milla
aunque tenga mis años te vas a comer
mas de dos caños
no es extraño algún René Higuita
tiene que haber que no vas a ver
mas guita de la que viste hastaa
hoy hacete la idea
de que la pelea 

(Usar la Parte 2)
esta arreglada
y te van a marcar la cara a patadas
por nada. 
Esto no es un chiste
estas loco man y la jodiste

-Estribillo-
============

-xx--xx-----xx-----
-xx--xx-----xx-----
-xx--xx-----xx-----
-33--33-----44-----
-33--33-----44-----
-33--33-----44-----
Esto no es un chiste, 

-xx--xx-------xxxx-x-----
-xx--xx-------xxxx-x-----
-xx--xx-------xxxx-x-----
-33--33-------3333-4-----
-33--33-------3333-4-----
-33--33-------3333-4-----
estas loco man y la jodiste, fuiste


-xx--xx-----xx-----
-xx--xx-----xx-----
-xx--xx-----xx-----
-33--33-----44-----
-33--33-----44-----
-33--33-----44-----
Esto no es un chiste, 

-xx--xx-------xx----x-----
-xx--xx-------xx----x-----
-xx--xx-------xx----x-----
-33--33-------33----4-----
-33--33-------33----4-----
-33--33-------33----4-----
estas loco man y la jodiste, fuiste

-xx--xx-----xx-----
-xx--xx-----xx-----
-xx--xx-----xx-----
-33--33-----44-----
-33--33-----44-----
-33--33-----44-----
te quemaste, te fundiste

-xx--xx-------xxxx-x-----
-xx--xx-------xxxx-x-----
-xx--xx-------xxxx-x-----
-33--33-------3333-4-----
-33--33-------3333-4-----
-33--33-------3333-4-----
estas loco man y la jodiste, fuiste


Cualquier duda, escríbanme:

fabe@

            
            
Suggest correction
Creating personal tab
Creating personal tab
You can edit any tab online and save it as your Personal.

You can edit, replace or remove any tab part or add personal notes – all changes will be seen only by you.

Personal tabs can be accessed anytime from any device, even offline.
Learn more »
Give kudos to tab author, rate the tab!
1 2 3 4 5
comments
print report bad tab
guest
Wanna post a correction for this tab? Suggest correction