Oops, an error
Loading. Please wait.

H.k. tab

36 views 1 this week
no commentswrite comment
1 2 3 4 5
3 more votes to show rating
add to favorites
×
Save as Personal and add changes to this tab that will be seen only by you. Learn more ›
×
You can save this tab as Personal to edit and correct it or add notes. All changes will be seen only by you. Learn more »
launch autoscroll
font size
0
reset
how to read this tab
guitar tuner
edit
Autoscroll
slow
fast
+/-
esc
set tempo
stop
E------------------------------------------------------
B------------------------------------------------------
G------------------------------------------------------
D--6-7--7-7-8--6-7--7-7-8--6-7--7-7-8------------------ 
A--6-7--7-7-8--6-7--7-7-8--6-7--7-7-8----6-5-6-5--3-5--
E--4-5--5-5-6--4-5--5-5-6--4-5--5-5-6------------------


Caminaba por la calle sin mirar por donde iba
deteniendome siempre al llegar a las esquinas
en eso andaba cuando fui atacado
por unos harekrishna que estaban re-salado

Me cagaron a patadas me vistieron de naranja
me lavaron el cerebro y me mandaron pa´la zanja
sali de la zanja cuando desperte
me sentia un poco etereo tomaba solo te


Estribillo:

Hare hare... harekrishna
Hare hare... harekrishna
Hare hare... harekrishna
Hare hare... harekrishna


Pasaron unas minas que se cagaron de risa
desesperado fui a lo de mi tia Marisa
es medio bruja y sabe del mal de ojo
tambien tiene una receta para los piojos

Me subi al bondi vestido de esa manera
las viejas murmuraban y apretaban la cartera
el chofer un tipo con pinta de tanguero
me miro de reojo y me dijo "pasa pajero"


Estribillo


E------------------------------------------------------
B------------------------------------------------------
G------------------------------------------------------
D------------------------------------------------------ 
A--7--------10-------------13-------13-13-13-13--------
E--5---------8-------------11-------11-11-11-11--------
  hey.......hey...........hey.......ay ay ay ay!!!!!


E---------------------------------------------------------------
B---------------------------------------------------------------
G--7-7--7-9-9--9------------------7-7--7-9-9--9-----------------
D--7-7--7-9-9--9-7-7--8-7-8-10----7-7--7-9-9--9-7-7--8-7-8-7---- 
A--5-5--5-7-7--7-7-7--6-5-6--8----5-5--5-7-7--7-7-7--6-5-6-5-8--
E----------------5-5----------------------------5-5-------------

E---------------------------------------------------------------------------
B---------------------------------------------------------------------------
G-*****  Parte A   ******--/--****   Parte B  ****--/--*****  Parte C -***--
D--8-9-8-9-8-9---10-10-10--/--8-9-8-9-----10-10-10--/--8-9-8-9-8-9-8-9-8-9--
A--6-7-6-7-6-7----8--8--8--/--6-7-6-7------8--8--8--/--6-7-6-7-6-7-6-7-6-7--
E-*****  Parte A   ******--/--****   Parte B  ****--/--*****  Parte C -***--
 
Tocar:  A A A A B A B C


Me baje en el barrio de mi tia
entre en un bar y pedi una Matutina
me dijo el gallego desde atras del mostrador
"ten moza, que pelada mas hermosa"
mi tia me miraba desconcertada "perdoname mijo pero de esto no se nada"
anda a lo de la Tota la esposa del sastre
ella tambien tiene un hijo que es un desastre
la Tota era una gorda descomunal
no sabia cocinar, todo mal!
mientras me echaba a patadas a la calle
me gritaba en la oreja "a vos no hay quien te salve"
me pudrieron el bocho
me jodieron de por vida
bailando en 18
sabiendome un bejiga
no encuentro la forma de evitar la maldicion
me deja idiota tanta paz interior


Malditos H.K. they fuck up mi vida
feeling like a jerk sabiendome un vejiga
Malditos H.K. they fuck up mi vida
feeling like a jerk sabiendome un vejiga
Malditos H.K. they fuck up mi vida
feeling like a jerk sabiendome un vejiga
Malditos H.K. they fuck up mi vida
feeling like a jerk sabiendome un vejiga


E------------------------------
B------------------------------
G------------------------------
D------------------------------
A-------6-5-----3----2--5------
E---5-5-----3-3---3------------


Malditos H.K. they fuck up mi vida
feeling like a jerk sabiendome un vejiga
Malditos H.K. they fuck up mi vida
feeling like a jerk..........

Un vejiga, un vejiga
soy un belinun...
Un vejiga, un vejiga
soy un belinun...
Un vejiga, un vejiga
soy un belinun...
Un vejiga, un vejiga


NOTA: Esta canción pertenece a la página ACORDES DEL URUGUAY

            
            
Suggest correction
Creating personal tab
Creating personal tab
You can edit any tab online and save it as your Personal.

You can edit, replace or remove any tab part or add personal notes – all changes will be seen only by you.

Personal tabs can be accessed anytime from any device, even offline.
Learn more »
Give kudos to tab author, rate the tab!
1 2 3 4 5
comments
print report bad tab
guest
Wanna post a correction for this tab? Suggest correction