Oops, an error
Loading. Please wait.

Cassette tab

by Pez
17 views 1 this week
no commentswrite comment
1 2 3 4 5
3 more votes to show rating
add to favorites
×
Save as Personal and add changes to this tab that will be seen only by you. Learn more ›
×
You can save this tab as Personal to edit and correct it or add notes. All changes will be seen only by you. Learn more »
launch autoscroll
font size
0
reset
how to read this tab
guitar tuner
edit
Autoscroll
slow
fast
+/-
esc
set tempo
stop
Intro
Em inv - C#m inv


 Em inv.                C#m inv.
Tu voz en el lado A y en el lado B TSOL
la carta que quedó atrapada en un viejo cassette

A                  A/F#             A5
Que fuiste a Cemento a ver Sentimiento
             F#m5                 F5      G5-G#5
y la A sangraba sobre un fondo negro


1986 y esta ciudad no te trata bien
no te importa el mundial, vos te encerrás a leer a Baudelaire

A                    A/F#
Y un cuaderno ajado y deforme su espiral
A                  A/F#                    A5
confunde palabras, lo que sentís o pensás
                      D    C-G
tu pequeña gran verdad

puente A:
---------------------------
---------------------------
---------------------------
-----------0-1-2-1---0-----
-----0-1-2---------2-------
-0-3-------------------3-0-

puente B:
-------------------------------------
-------------------------------------
-------------------------------------
2-0---0--------------0-1-2-1---0-----  x3
----2----------0-1-2---------2-------
--------3--0-3-------------------3-0-

puente final
---------------------------------
---------------------------------
---------------------------------
2-0---0--------------0-1-2-3-5-6-
----2----------0-1-2-------------
--------3--0-3-------------------

(puente A)
(puente B x3)
(puente final)


(intro)


Promesas que no vas ni a palos a cumplir
las letras de los Crass que a tu modo siempre traducís

Te teñiste el pelo, no te importa trabajar
Nunca hay buen dinero, pues tu tiempo vale más
A                    D  C-G
lo que sentís y pensás


Em inv:
---
---
---
-5-
-7-
---


c#m inv:
---
---
---
-2-
-4-
---

Un abrazo y suerte!
Zr. Zorrino
Suggest correction
Creating personal tab
Creating personal tab
You can edit any tab online and save it as your Personal.

You can edit, replace or remove any tab part or add personal notes – all changes will be seen only by you.

Personal tabs can be accessed anytime from any device, even offline.
Learn more »
Give kudos to tab author, rate the tab!
1 2 3 4 5
comments
print report bad tab
guest
Wanna post a correction for this tab? Suggest correction