Oops, an error
Loading. Please wait.

Creo Que Amamos El Dolor tab

by Pez
59 views 1 this week
no commentswrite comment
1 2 3 4 5
3 more votes to show rating
add to favorites
×
Save as Personal and add changes to this tab that will be seen only by you. Learn more ›
×
You can save this tab as Personal to edit and correct it or add notes. All changes will be seen only by you. Learn more »
launch autoscroll
font size
0
reset
how to read this tab
guitar tuner
edit
Autoscroll
slow
fast
+/-
esc
set tempo
stop
riff principal

|-----------------------|-------------------------
|-----------------------|-------------------------
|-----------------------|-------------------------
|-----------------5---5-|-----------------5-7-7^8-
|-------5-6-7-7-7---7---|-------5-6-7-7-7---------
|-5-6-7-----------------|-5-6-7-------------------


riff antes del primer verso
-------------
-------------
-------------
-----------9-
-------5-6-7-
-5-6-7-------

(riff principal x3 y riff antes del primer verso)

    Em
Gente armada hasta los dientes de odio
     A#
camina las calles del barrio.
  Em      A#
Calma sin dicha,
     G
como la calma de aquel que está muerto.
   Em
El espejo devuelve la imagen frustrante
    A#
de un hombre adulto llorando,
  Em       A#        G        D
no me inquieta ni la desesperación.

 C#                           (C# C B A#)
Yo te amo pero y con eso qué,
A#                            (A# B C C#)
sólo suma las heridas del amor.
 C#                           (C# C B A#)
Se termina y otra vez vuelta a empezar,

A#                   G#
creo que amamos el dolor.

(solo sobre base de solo a x4, base de solo b x4,
 riff principal, riff antes del coro)

Yo te amo pero y con eso que...

(riff principal x2 y riff antes del primer verso)

base de solo 1

---------------------------------
---------------------------------
---------------------------------
-------5---5---------------------
-7-7-7---7-------------5---5-6---
-------------5-6-7-7-7---7-------


---------------------------------
---------------------------------
---------------------------------
-------5-7-5---------------------
-7-7-7----------------5---5-6---
------------5-6-7-7-7---7-------


(riff antes del coro)
-------------
-------------
-------------
-----------6-
-------5-6-4-
-5-6-7-------

Un abrazo y suerte para todos!
Zr. Zorrino

            
            
Suggest correction
Creating personal tab
Creating personal tab
You can edit any tab online and save it as your Personal.

You can edit, replace or remove any tab part or add personal notes – all changes will be seen only by you.

Personal tabs can be accessed anytime from any device, even offline.
Learn more »
Give kudos to tab author, rate the tab!
1 2 3 4 5
comments
print report bad tab
guest
Wanna post a correction for this tab? Suggest correction