Oops, an error
Loading. Please wait.

El Idiota tab

by Pez
48 views 1 this week
no commentswrite comment
1 2 3 4 5
3 more votes to show rating
add to favorites
×
Save as Personal and add changes to this tab that will be seen only by you. Learn more ›
×
You can save this tab as Personal to edit and correct it or add notes. All changes will be seen only by you. Learn more »
launch autoscroll
font size
0
reset
how to read this tab
guitar tuner
edit
Autoscroll
slow
fast
+/-
esc
set tempo
stop
El idiota

Intro
(nota: en el video de vivoconectado Minimal toca la nota nomas
y resuelve en los primeros trastes

-----------¡------------¡-----------------------
-----------¡------------¡-----------------------
-----------¡----------8-¡-10-8-5---3-5----------
-7-5-2-5-8-¡-10-8-5-8-8-¡-10-8-5-5-3-5-2-3-4----
-7-5-2-5-8-¡-10-8-5-8-6-¡-8--6-3-5-1-3-2-3-3----
-5-3-0-3-6-¡-8--6-3-6---¡--------3-----0-1-2----

Riff

--------------------------------------------
--------------------------------------------
--------------------------------------------
-4-4-4---------4-4-4-----4---4-4-4----------
-3-3-3-----4---3-3-3---------3-3-3-----3----
-2-2-2-3-5---3-2-2-2-3-5---5-2-2-2-3-5---5--

Fill

------------------
------------------
------------------
------------------
-4---3---2---1----
---5---4---3---3--


(intro x2)
(riff)
(fill x2)
(riff)
(fill x2)


(sobre riff pero solo los acordes)

el silencio se apodera de nosotros
                         (fill)
y no hay nada que yo pueda hacer

si no me atrevo a mirarte a los ojos es porque
 sé que hoy sólo puedo perder

 A
yo era el idiota,
era el que hacía las muecas,
G#           G
el aprendiz de bufón

(riff y fill x2)


la psicodelia fue la excusa perfecta
y mientras el cuarto no pare de girar

escuchando el sonido que hacen las puertas
cuando una fuerte se empieza a levantar

A
soy el idiota,
soy el que hace las muecas,
G#      G
un complaciente bufón

riff y fill x2)
fillx3

despues
------------------'---'-----
------------------'---'-----
------------------'x2-'-6-6-
------------------'---'-6-6-
-6---5---4---3----'---'-4-4-
---7---6---5---5--'---'-----


Un abrazo y suerte!
Zr. Zorrino

            
            
Suggest correction
Creating personal tab
Creating personal tab
You can edit any tab online and save it as your Personal.

You can edit, replace or remove any tab part or add personal notes – all changes will be seen only by you.

Personal tabs can be accessed anytime from any device, even offline.
Learn more »
Give kudos to tab author, rate the tab!
1 2 3 4 5
comments
print report bad tab
guest
Wanna post a correction for this tab? Suggest correction