Oops, an error
Loading. Please wait.

Fuerza tab

by Pez
86 views 1 this week
no commentswrite comment
1 2 3 4 5
3 more votes to show rating
add to favorites
×
Save as Personal and add changes to this tab that will be seen only by you. Learn more ›
×
You can save this tab as Personal to edit and correct it or add notes. All changes will be seen only by you. Learn more »
launch autoscroll
font size
0
reset
how to read this tab
guitar tuner
edit
Autoscroll
slow
fast
+/-
esc
set tempo
stop
RIFF:

E---------------------------------
B---------------------------------
G--------------------------------
D----------5---5----7-5-----------
A ---7-5-7---7----------7-6-5-----
E-----------------------------8-5-3

E----------------------------------
B-----------------------------8-7-8
G-------------------7---7-9--------
D----------5--5/7/9---9------------
A ---7-5-7-------------------------
E----------------------------------

en la repetición en la segunda parte
juega con la escala de Em.

tema: los acordes háganlos con 5as o así

G:

E--0---
B--0------
G--4-----
D--5----
A--5-----
E--3-------

Bb:

E--0---
B--0------
G--7-----
D--8----
A--8-----
E--6-------

                  Em  G  Bb
Dónde se esconde?
                  Em  G (Fill1)
En el centro de mi cabeza

Fill1:

E------------0-------
B----------------3---
G--------3----------3
D-2---2--------------
A---1----------------
E--------------------

Em                G            Bb
Si me encontrara
Em                G            (Fill1)
Podría detener la tierra


Fill 2
Que gira sólo por girar
y no va a ningún lado

Fill

E----------------------------
B----------------------------
G------0-------0----------0--
D----3---3---3----3-----3---3
A--5-------4-----------3-----
E----------------------------

Em                G            Bb
Si a ella accediera
Em                G            (Fill1)
podría salir de mi cama
Em                G            Bb
me atrapa la almohada
Em                G            (Fill1)
oh oh oh almohada

Fill 2
a la mañana nada va a pasar


Sólo


E-----------------------------------
B-----------------------------------
G--------7------6-7-9-7-6--6-7-9-7-6
D-----5-------9-----------9---------
A--7--------------------------------
E-----------------------------------


E----------12-------------15
B--------12-----------15----
G-----12-----------15-------
D--14-----------17----------
A---------------------------
E---------------------------

E----------18----------------
B--------17----------5----5--
G-----18-------------7^9--7^9
D--19------------------------
A----------------------------
E----------------------------


E-------------------------------------------
B----7-----8------7-----8-------10------12--
G----9^11--10^12--9^11--10^12---12^14---14^16
D------------------------------------------
A-------------------------------------------
E-------------------------------------------

Después juega con la escala de Em pos 12 y termina con

E----------------------
B----------------------
G--14-12-------13^14---
D--------14-12---------
A----------------------
E----------------------
E----------------------

B--------------
G-----------------
D-----------------------
A------9-8---9-8---9-8---9--
E--0-0-7-6-0-7-6-0-7-6-0-7--


E----------
B---------
G----------
A------9-8
E--0-0-7-6   x8  F#5 Bb5


E----------
B---------
G----------
A------9-8
E--0-0-7-6   x8  F#5 Bb5 D Dsus4

Riff

Estrofa

                  Em  G  Bb
Destroza la cama
                  Em  G (Fill1)
Y arrastra hacia dentro mi espalda

                  Em  G  Bb
No bajo del cielo, ¡NO!
                  Em  G (Fill1)
No hay pruebas de que exista vida después de la muerte

Fill 2
Sería tan fácil si tuviera fé


Estrofa final

                  Em  G (Fill1)
Pero en vez de fé tengo fuerza
                  Em  G (Fill1)
Pero en vez de fé tengo fuerza, ¿qué le voy a hacer?

Riff

Fin:

Improvisa un toque sobre Em y hace

C5 B5 A5 G5 F#5

F

y termina


no está toda la impro que hace porque es un bardo

masomenos el esqueleto es éste

cualquier duda mail a lucasmartinar@

abrazo grande y viva pez!

            
            
Suggest correction
Creating personal tab
Creating personal tab
You can edit any tab online and save it as your Personal.

You can edit, replace or remove any tab part or add personal notes – all changes will be seen only by you.

Personal tabs can be accessed anytime from any device, even offline.
Learn more »
Give kudos to tab author, rate the tab!
1 2 3 4 5
comments
print report bad tab
guest
Wanna post a correction for this tab? Suggest correction