Oops, an error
Loading. Please wait.

Las Escondidas tab

by Pez
22 views 1 this week
no commentswrite comment
1 2 3 4 5
3 more votes to show rating
add to favorites
×
Save as Personal and add changes to this tab that will be seen only by you. Learn more ›
×
You can save this tab as Personal to edit and correct it or add notes. All changes will be seen only by you. Learn more »
launch autoscroll
font size
0
reset
how to read this tab
guitar tuner
edit
Autoscroll
slow
fast
+/-
esc
set tempo
stop
Despues de los tremendos solos de guitarra...

|---------------------------------|
|---------------------------------|
|---------0-----------------------|
|-2-2-2-2---2-0-----------0-------|
|---------------2-0-----2---------|
|-------------------3-0-----------|

 To-do es-te tiem-po yo te es-tu-ve buscando
|--------------------------------------------|
|--------------------------------------------|
|-------------0-------------------------2-0--|
|-2-0--2--0-------2--2---0-2-0-------2-------|
|--------------------------------------------|
|--------------------------------------------|

 y no pu-de encontrarte
|-------------------------|
|-------------------------|
|--------------0----------|
|-2-0-2-0---------2-------|
|-------------------------|
|-------------------------|


|--------------------------|
|--------------------------|
|--------------2-0---------|
|----------0-2-----2-0---0-|
|-----0-2--------------2---|
|-0-3----------------------|

(con fraseo parecido al del primer verso)

Sigo contando
y no hay piedra que libre
el dolor de no hallarte

|----------------------------------------|
|----------------------------------------|
|--------------2-0-----------------------|
|----------0-2-----2-0---0-4-2-0---------|
|-----0-2--------------2---------2----0--|
|-0-3------------------------------3----0|


solo de organo sobre

|-------------|
|-8--8--8--8--|
|-7--6--5--6--|
|-5--5--5--5--|
|-------------|
|-------------|

|--------------------------|
|--------------------------|
|--------------2-0---------|
|----------0-2-----2-0---0-|
|-----0-2--------------2---|
|-0-3----------------------|


Todo este tiempo

te estuve buscando
y no pude encontrarte

|--------------------------|
|--------------------------|
|--------------2-0---------|
|----------0-2-----2-0---0-|
|-----0-2--------------2---|
|-0-3----------------------|

Sacudan al niño
que sigue buscando
treinta años más tarde

|----------------------------------------|
|----------------------------------------|
|--------------2-0-----------------------|
|----------0-2-----2-0---0-4-2-0---------|
|-----0-2--------------2---------2----0--|
|-0-3------------------------------3----0|


Ojala les sirva!
un abrazo para todos/as!
Zr. Zorrino

            
            
Suggest correction
Creating personal tab
Creating personal tab
You can edit any tab online and save it as your Personal.

You can edit, replace or remove any tab part or add personal notes – all changes will be seen only by you.

Personal tabs can be accessed anytime from any device, even offline.
Learn more »
Give kudos to tab author, rate the tab!
1 2 3 4 5
comments
print report bad tab
guest
Wanna post a correction for this tab? Suggest correction