Oops, an error
Loading. Please wait.

Lo Interesante Es Por Afuera tab

by Pez
17 views 1 this week
no commentswrite comment
1 2 3 4 5
3 more votes to show rating
add to favorites
×
Save as Personal and add changes to this tab that will be seen only by you. Learn more ›
×
You can save this tab as Personal to edit and correct it or add notes. All changes will be seen only by you. Learn more »
launch autoscroll
font size
0
reset
how to read this tab
guitar tuner
edit
Autoscroll
slow
fast
+/-
esc
set tempo
stop
Intro (completa la armonia el organo)
--------------
--------------
--------------
--------------
-4-2---2-3-4--
-----4--------

Riff
-------------------------------------------
-------------------------------------------
-------------------------------------------
6-6-5-5-4-4--------------------------------
4-4-3-3-2-2-4-2---2-3-4-2-2-2-2-2-4-4-4-4-4
----------------4-------0-0-0-0-0-2-2-2-2-2


  G     F#
tiempo antes de nacer
  G     F#       G
ya sabemos de correr
  A                   B   (Riff 2)
la carrera eterna y cruel

Riff 2
-------------------------
-------------------------
-------------------------
-------------------------
--6-------6---------3-4-5
----5-4-3---5-4-3-2------


B  (riff 2)
volver
...
   E         G
siempre al mismo lugar
o incluso más atrás

F# G      A  G    F#  G  F#
só-lo es tin-ta sobre pa-pel,
no vayas a dejar tu piel

(sobre riff)

lo interesante es por afuera
si adentro duele y mal
saber lo que hay que saber

2do verso:

para hacer lo que hay que hacer
tratando de no hacer mal,
sólo obedeciéndome a mí

nadie más a quien culpar, tengo el corte final
sólo es tinta sobre papel, no vayas a dejar tu piel

(solo sobre acordes de verso)

nadie más a quien culpar, tengo el corte final
nadie más a quien culpar...
sólo es tinta sobre papel, no vayas a dejar tu pie


un abrazo y suerte!
Zr. Zorrino.
Suggest correction
Creating personal tab
Creating personal tab
You can edit any tab online and save it as your Personal.

You can edit, replace or remove any tab part or add personal notes – all changes will be seen only by you.

Personal tabs can be accessed anytime from any device, even offline.
Learn more »
Give kudos to tab author, rate the tab!
1 2 3 4 5
comments
print report bad tab
guest
Wanna post a correction for this tab? Suggest correction