Oops, an error
Loading. Please wait.

Lo Que Se Ve No Es Lo Real tab

by Pez
51 views 1 this week
no commentswrite comment
1 2 3 4 5
3 more votes to show rating
add to favorites
×
Save as Personal and add changes to this tab that will be seen only by you. Learn more ›
×
You can save this tab as Personal to edit and correct it or add notes. All changes will be seen only by you. Learn more »
launch autoscroll
font size
0
reset
how to read this tab
guitar tuner
edit
Autoscroll
slow
fast
+/-
esc
set tempo
stop
Intro

a|--7--5---5-----
E|-------7---7--6


Hace el riff a) 4 veces, con algunas variaciones

A)
e|--------------------------|
B|--------------------------|
G|--------------------------|
D|---------5----------------|
A|-5-7-5-7---7--7-5---------|
E|------------------7-6-5-3-|

e|------------------|
B|------------------|    (las 4 veces termina
G|---5p4--7-7-7-7---|     asi, lo que cambia
D|--------7-7-7-5---|     es el comienzo)
A|--------5-5-5-5---|
E|------------------|

B)
e|---------------------------|
B|---------------------------|
G|---------------------------|
D|-5v------------------------|
A|----7h5-7--7---7-5---------|
E|-------------------7-6-5-3-|

C)
e|-------------------------------|
B|-------------------------------|
G|-------------------------------|
D|-------5---------5-------------|
A|-5-6-7---7-5-6-7---7-5---------|
E|-----------------------7-6-5-3-|

El orden es a) b) c) a)

Después
             MIm
e|-----------12---------|
B|-----------12---------|
G|----------------------|
D|-14------->-----------|
A|-14------->-----------|
E|-12------->-----------|


Verso


MIm   SOL             RE
Si,           yo soy un pez

MIm    SOL            RE
           Lo que se    (en ese mim puede ir el riff intro)

MIm    SOL            RE
ve,         no es lo real

MI (muteado)    SOL - RE  (casi A lo ultimo estos dos)

En realidad ese sol y re no son los que están en la grabación
Original, pero tampoco se escucha claro y así queda bien

El segundo verso es igual

cesa la razón,
abro un lugar
para algo más


En el verso se puede meter este punteo tambien
          MIm                SOL
e|--------------|----|
B|--------------|----| (imitaría al bajo)
G|--------------|----|
D|------------0-|----|
A|------0-0-2---|----|
E|-0--3---------|----|


LA               DO        SOL
     siento las algas,
LA            DO       SOL
    siento bancos de coral,
LA               DO      SOL
    siento que antes fuí hombre,
LA             DO             RE       SOL
ahora soy pez, soy un pez, soy del mar.

De nuevo riff principal. Orden : a) b) d) e)

D)
e|-----------------------------------|
b|--8--------------------------------|
g|----7-6-8--------------------------|
d|----------7-6-8--------------------|
a|----------------7-5-7-5------------|
E|------------------------7-6-5--3---|

E)
e|---------------------------|
B|---------------------------|
G|---------------------------|
D|---------------------------|
A|-5-7-5----5-7--7-5---------|
E|-------7-----------7-6-5-3-|


MI
Agua
SOL       RE               MI *
     mi nuevo hogar,
SOL       RE               MI **
         al no pensar,
SOL    RE                 MI ***
     ya no hay sufrir.


MI
Y
SOL      RE          MI
    si no hay sufrir,
SOL       RE             MI
    vuelvo a empezar,
SOL       RE            MI
     me hundo en el mar.

(Los primeros 3 acordes de mi los toca
en la posición del traste 7, stacatto)

*)
e|-----------------|
B|-----------------|
G|-----------------|
D|-----------------|
A|---7-5-----------|
E|-------7-6-5-Sol-|

**)
e|---------|
B|-12------|
G|-14b-----|
D|---------|
A|---------|
E|---------|

***)
acá estira unas cuerdas, pero se pueden tocar
los acordes muteados como en el primer verso
e|-------------------------------------|
B|-5---4---3---2---1---0---------------|
G|-7b--6b--5b--4b--3b--2b-2p0-2p0------|
D|--------------------------------2p0--|
A|-------------------------------------|
E|-------------------------------------|


LA           DO       SOL
Si todo cambia
LA             DO              SOL
 entonces querré volar,
LA            DO   SOL
   mañana seré ave,
LA             DO             RE       SOL
ahora soy pez, soy un pez, vuelvo al mar.


Solo:

Los primeros 8 compases son muy improvisables (en mi menor)
Los otros 8 son


(Queda bien con un wah)

e|---0-0-0-----0-----0------0-0-0----|
b|-/5------8/7---7/5--5/3-3----------|
g|-----------------------------------| x2
d|-----------------------------------|
a|-----------------------------------|
E|-----------------------------------|

e|---0-0-0-----0-----0------0------0-0-----------15?--|
b|-/5------8/7---7/8---8/10---10/12---12/15-/17-------|
g|----------------------------------------------------|
d|----------------------------------------------------|
a|----------------------------------------------------|
E|----------------------------------------------------|

e|-17?----15?---------------------------|
b|----17?------15?----------------------|
g|----------16?---12?-14?------------12-|
d|---------------------12?-14?---12-----|
a|--------------------------------------|
E|--------------------------------------|


e|---------------------------------------------------|
b|---------------------------------------------------|
g|-14b-14-12-------14b-14-12--12-------------12------|
d|-----------14-x2----------14--14-12--12-14----14---|
a|-----------------------------------14--------------|
E|---------------------------------------------------|


E|---------------------------------------------------------|
B|---------------------------------------------------------|
G|---------------------------------------------------------|
D|--------------------------------------5-5-5-5-5-5--7--2--|
A|--------------------------------------5-5-5-5-5-5--7--2--|
E|-7-9-10-9-7-9-10-9-7-9-10-9--7-9------3-3-3-3-3-3--5--0--|

e|--------------|
B|----7-----7b--|
G|---7----------|
D|--7-----------|
A|-5------------|
E|--------------|


e|-----------------------------|
B|-----------------------------|
G|-----------------------------|
D|---------5-------------------|   x3
A|-5-7-5-7---7--7-5------------|
E|------------------7-6-5-3---5|

e|-----------------------------|
B|-----------------------------|
G|-7-9-7-9-7-9-----------------|
D|-7-9-7-9-7-9-----------------|
A|-5-7-5-7-5-7---7-5-----------|
E|-------------------7-6-5-0---|

            
            
Suggest correction
Creating personal tab
Creating personal tab
You can edit any tab online and save it as your Personal.

You can edit, replace or remove any tab part or add personal notes – all changes will be seen only by you.

Personal tabs can be accessed anytime from any device, even offline.
Learn more »
Give kudos to tab author, rate the tab!
1 2 3 4 5
comments
print report bad tab
guest
Wanna post a correction for this tab? Suggest correction